  0
SECTION
  2
HEADER
  9
$ACADVER
  1
AC1009
  0
ENDSEC
  0
SECTION
  2
ENTITIES
  0
POLYLINE
  5
90
  8
Layer_0
  62
0
  66
1
  10
0
  20
0
  30
0
  0
VERTEX
  5
90
  8
Layer_0
  10
505.86749
  20
517
  0
VERTEX
  5
91
  8
Layer_0
  10
480.84003
  20
517
  0
VERTEX
  5
92
  8
Layer_0
  10
478.84003
  20
515
  0
VERTEX
  5
93
  8
Layer_0
  10
478.84003
  20
492
  0
VERTEX
  5
94
  8
Layer_0
  10
475.15997
  20
492
  0
VERTEX
  5
95
  8
Layer_0
  10
475.15997
  20
514.5
  0
VERTEX
  5
96
  8
Layer_0
  10
473.15997
  20
517
  0
VERTEX
  5
97
  8
Layer_0
  10
448.13251
  20
517
  0
VERTEX
  5
98
  8
Layer_0
  10
435.61871
  20
495.32553
  0
VERTEX
  5
99
  8
Layer_0
  10
436.35077
  20
492.59348
  0
VERTEX
  5
9a
  8
Layer_0
  10
456.26935
  20
481.09348
  0
VERTEX
  5
9b
  8
Layer_0
  10
454.42938
  20
477.90652
  0
VERTEX
  5
9c
  8
Layer_0
  10
434.94379
  20
489.15652
  0
VERTEX
  5
9d
  8
Layer_0
  10
431.77875
  20
488.67447
  0
VERTEX
  5
9e
  8
Layer_0
  10
419.26495
  20
467
  0
VERTEX
  5
9f
  8
Layer_0
  10
431.77875
  20
445.32553
  0
VERTEX
  5
a0
  8
Layer_0
  10
434.5108
  20
444.59348
  0
VERTEX
  5
a1
  8
Layer_0
  10
454.42938
  20
456.09348
  0
VERTEX
  5
a2
  8
Layer_0
  10
456.26935
  20
452.90652
  0
VERTEX
  5
a3
  8
Layer_0
  10
436.78381
  20
441.65652
  0
VERTEX
  5
a4
  8
Layer_0
  10
435.61871
  20
438.67447
  0
VERTEX
  5
a5
  8
Layer_0
  10
448.13251
  20
417
  0
VERTEX
  5
a6
  8
Layer_0
  10
473.15997
  20
417
  0
VERTEX
  5
a7
  8
Layer_0
  10
475.15997
  20
419
  0
VERTEX
  5
a8
  8
Layer_0
  10
475.15997
  20
442
  0
VERTEX
  5
a9
  8
Layer_0
  10
478.84003
  20
442
  0
VERTEX
  5
aa
  8
Layer_0
  10
478.84003
  20
419.5
  0
VERTEX
  5
ab
  8
Layer_0
  10
480.84003
  20
417
  0
VERTEX
  5
ac
  8
Layer_0
  10
505.86749
  20
417
  0
VERTEX
  5
ad
  8
Layer_0
  10
518.38129
  20
438.67447
  0
VERTEX
  5
ae
  8
Layer_0
  10
517.64923
  20
441.40652
  0
VERTEX
  5
af
  8
Layer_0
  10
497.73065
  20
452.90652
  0
VERTEX
  5
b0
  8
Layer_0
  10
499.57062
  20
456.09348
  0
VERTEX
  5
b1
  8
Layer_0
  10
519.05621
  20
444.84348
  0
VERTEX
  5
b2
  8
Layer_0
  10
522.22125
  20
445.32553
  0
VERTEX
  5
b3
  8
Layer_0
  10
534.73505
  20
467
  0
VERTEX
  5
b4
  8
Layer_0
  10
522.22125
  20
488.67447
  0
VERTEX
  5
b5
  8
Layer_0
  10
519.4892
  20
489.40652
  0
VERTEX
  5
b6
  8
Layer_0
  10
499.57062
  20
477.90652
  0
VERTEX
  5
b7
  8
Layer_0
  10
497.73065
  20
481.09348
  0
VERTEX
  5
b8
  8
Layer_0
  10
517.21619
  20
492.34348
  0
VERTEX
  5
b9
  8
Layer_0
  10
518.38129
  20
495.32553
  0
VERTEX
  5
ba
  8
Layer_0
  10
505.86749
  20
517
  0
SEQEND
  0
POLYLINE
  5
bc
  8
Layer_0
  62
0
  66
1
  10
0
  20
0
  30
0
  0
VERTEX
  5
bc
  8
Layer_0
  10
505.86749
  20
517
  0
VERTEX
  5
bd
  8
Layer_0
  10
480.84003
  20
517
  0
VERTEX
  5
be
  8
Layer_0
  10
478.84003
  20
515
  0
VERTEX
  5
bf
  8
Layer_0
  10
478.84003
  20
492
  0
VERTEX
  5
c0
  8
Layer_0
  10
475.15997
  20
492
  0
VERTEX
  5
c1
  8
Layer_0
  10
475.15997
  20
514.5
  0
VERTEX
  5
c2
  8
Layer_0
  10
473.15997
  20
517
  0
VERTEX
  5
c3
  8
Layer_0
  10
448.13251
  20
517
  0
VERTEX
  5
c4
  8
Layer_0
  10
435.61871
  20
495.32553
  0
VERTEX
  5
c5
  8
Layer_0
  10
436.35077
  20
492.59348
  0
VERTEX
  5
c6
  8
Layer_0
  10
456.26935
  20
481.09348
  0
VERTEX
  5
c7
  8
Layer_0
  10
454.42938
  20
477.90652
  0
VERTEX
  5
c8
  8
Layer_0
  10
434.94379
  20
489.15652
  0
VERTEX
  5
c9
  8
Layer_0
  10
431.77875
  20
488.67447
  0
VERTEX
  5
ca
  8
Layer_0
  10
419.26495
  20
467
  0
VERTEX
  5
cb
  8
Layer_0
  10
431.77875
  20
445.32553
  0
VERTEX
  5
cc
  8
Layer_0
  10
434.5108
  20
444.59348
  0
VERTEX
  5
cd
  8
Layer_0
  10
454.42938
  20
456.09348
  0
VERTEX
  5
ce
  8
Layer_0
  10
456.26935
  20
452.90652
  0
VERTEX
  5
cf
  8
Layer_0
  10
436.78381
  20
441.65652
  0
VERTEX
  5
d0
  8
Layer_0
  10
435.61871
  20
438.67447
  0
VERTEX
  5
d1
  8
Layer_0
  10
448.13251
  20
417
  0
VERTEX
  5
d2
  8
Layer_0
  10
473.15997
  20
417
  0
VERTEX
  5
d3
  8
Layer_0
  10
475.15997
  20
419
  0
VERTEX
  5
d4
  8
Layer_0
  10
475.15997
  20
442
  0
VERTEX
  5
d5
  8
Layer_0
  10
478.84003
  20
442
  0
VERTEX
  5
d6
  8
Layer_0
  10
478.84003
  20
419.5
  0
VERTEX
  5
d7
  8
Layer_0
  10
480.84003
  20
417
  0
VERTEX
  5
d8
  8
Layer_0
  10
505.86749
  20
417
  0
VERTEX
  5
d9
  8
Layer_0
  10
518.38129
  20
438.67447
  0
VERTEX
  5
da
  8
Layer_0
  10
517.64923
  20
441.40652
  0
VERTEX
  5
db
  8
Layer_0
  10
497.73065
  20
452.90652
  0
VERTEX
  5
dc
  8
Layer_0
  10
499.57062
  20
456.09348
  0
VERTEX
  5
dd
  8
Layer_0
  10
519.05621
  20
444.84348
  0
VERTEX
  5
de
  8
Layer_0
  10
522.22125
  20
445.32553
  0
VERTEX
  5
df
  8
Layer_0
  10
534.73505
  20
467
  0
VERTEX
  5
e0
  8
Layer_0
  10
522.22125
  20
488.67447
  0
VERTEX
  5
e1
  8
Layer_0
  10
519.4892
  20
489.40652
  0
VERTEX
  5
e2
  8
Layer_0
  10
499.57062
  20
477.90652
  0
VERTEX
  5
e3
  8
Layer_0
  10
497.73065
  20
481.09348
  0
VERTEX
  5
e4
  8
Layer_0
  10
517.21619
  20
492.34348
  0
VERTEX
  5
e5
  8
Layer_0
  10
518.38129
  20
495.32553
  0
VERTEX
  5
e6
  8
Layer_0
  10
505.86749
  20
517
  0
SEQEND
  0
POLYLINE
  5
e8
  8
Layer_0
  62
0
  66
1
  10
0
  20
0
  30
0
  0
VERTEX
  5
e8
  8
Layer_0
  10
496.37659
  20
368.97876
  0
VERTEX
  5
e9
  8
Layer_0
  10
512.2865
  20
384.88867
  0
VERTEX
  5
ea
  8
Layer_0
  10
512.64008
  20
388.07062
  0
VERTEX
  5
eb
  8
Layer_0
  10
500.71069
  20
400
  0
VERTEX
  5
ec
  8
Layer_0
  10
483.84003
  20
400
  0
VERTEX
  5
ed
  8
Layer_0
  10
481.84003
  20
398
  0
VERTEX
  5
ee
  8
Layer_0
  10
481.84003
  20
375
  0
VERTEX
  5
ef
  8
Layer_0
  10
478.15997
  20
375
  0
VERTEX
  5
f0
  8
Layer_0
  10
478.15997
  20
397.5
  0
VERTEX
  5
f1
  8
Layer_0
  10
476.15997
  20
400
  0
VERTEX
  5
f2
  8
Layer_0
  10
459.28931
  20
400
  0
VERTEX
  5
f3
  8
Layer_0
  10
447.35992
  20
388.07062
  0
VERTEX
  5
f4
  8
Layer_0
  10
447.35992
  20
385.24219
  0
VERTEX
  5
f5
  8
Layer_0
  10
463.62341
  20
368.97876
  0
VERTEX
  5
f6
  8
Layer_0
  10
461.02124
  20
366.37659
  0
VERTEX
  5
f7
  8
Layer_0
  10
445.11133
  20
382.2865
  0
VERTEX
  5
f8
  8
Layer_0
  10
441.92938
  20
382.64008
  0
VERTEX
  5
f9
  8
Layer_0
  10
430
  20
370.71069
  0
VERTEX
  5
fa
  8
Layer_0
  10
430
  20
353.84003
  0
VERTEX
  5
fb
  8
Layer_0
  10
432
  20
351.84003
  0
VERTEX
  5
fc
  8
Layer_0
  10
455
  20
351.84003
  0
VERTEX
  5
fd
  8
Layer_0
  10
455
  20
348.15997
  0
VERTEX
  5
fe
  8
Layer_0
  10
432.5
  20
348.15997
  0
VERTEX
  5
ff
  8
Layer_0
  10
430
  20
346.15997
  0
VERTEX
  5
100
  8
Layer_0
  10
430
  20
329.28931
  0
VERTEX
  5
101
  8
Layer_0
  10
441.92938
  20
317.35992
  0
VERTEX
  5
102
  8
Layer_0
  10
444.75781
  20
317.35992
  0
VERTEX
  5
103
  8
Layer_0
  10
461.02124
  20
333.62341
  0
VERTEX
  5
104
  8
Layer_0
  10
463.62341
  20
331.02124
  0
VERTEX
  5
105
  8
Layer_0
  10
447.7135
  20
315.11133
  0
VERTEX
  5
106
  8
Layer_0
  10
447.35992
  20
311.92938
  0
VERTEX
  5
107
  8
Layer_0
  10
459.28931
  20
300
  0
VERTEX
  5
108
  8
Layer_0
  10
476.15997
  20
300
  0
VERTEX
  5
109
  8
Layer_0
  10
478.15997
  20
302
  0
VERTEX
  5
10a
  8
Layer_0
  10
478.15997
  20
325
  0
VERTEX
  5
10b
  8
Layer_0
  10
481.84003
  20
325
  0
VERTEX
  5
10c
  8
Layer_0
  10
481.84003
  20
302.5
  0
VERTEX
  5
10d
  8
Layer_0
  10
483.84003
  20
300
  0
VERTEX
  5
10e
  8
Layer_0
  10
500.71069
  20
300
  0
VERTEX
  5
10f
  8
Layer_0
  10
512.64008
  20
311.92938
  0
VERTEX
  5
110
  8
Layer_0
  10
512.64008
  20
314.75781
  0
VERTEX
  5
111
  8
Layer_0
  10
496.37659
  20
331.02124
  0
VERTEX
  5
112
  8
Layer_0
  10
498.97876
  20
333.62341
  0
VERTEX
  5
113
  8
Layer_0
  10
514.88867
  20
317.7135
  0
VERTEX
  5
114
  8
Layer_0
  10
518.07062
  20
317.35992
  0
VERTEX
  5
115
  8
Layer_0
  10
530
  20
329.28931
  0
VERTEX
  5
116
  8
Layer_0
  10
530
  20
346.15997
  0
VERTEX
  5
117
  8
Layer_0
  10
528
  20
348.15997
  0
VERTEX
  5
118
  8
Layer_0
  10
505
  20
348.15997
  0
VERTEX
  5
119
  8
Layer_0
  10
505
  20
351.84003
  0
VERTEX
  5
11a
  8
Layer_0
  10
527.5
  20
351.84003
  0
VERTEX
  5
11b
  8
Layer_0
  10
530
  20
353.84003
  0
VERTEX
  5
11c
  8
Layer_0
  10
530
  20
370.71069
  0
VERTEX
  5
11d
  8
Layer_0
  10
518.07062
  20
382.64008
  0
VERTEX
  5
11e
  8
Layer_0
  10
515.24219
  20
382.64008
  0
VERTEX
  5
11f
  8
Layer_0
  10
498.97876
  20
366.37659
  0
VERTEX
  5
120
  8
Layer_0
  10
496.37659
  20
368.97876
  0
SEQEND
  0
POLYLINE
  5
122
  8
Layer_0
  62
0
  66
1
  10
0
  20
0
  30
0
  0
VERTEX
  5
122
  8
Layer_0
  10
496.37659
  20
368.97876
  0
VERTEX
  5
123
  8
Layer_0
  10
512.2865
  20
384.88867
  0
VERTEX
  5
124
  8
Layer_0
  10
512.64008
  20
388.07062
  0
VERTEX
  5
125
  8
Layer_0
  10
500.71069
  20
400
  0
VERTEX
  5
126
  8
Layer_0
  10
483.84003
  20
400
  0
VERTEX
  5
127
  8
Layer_0
  10
481.84003
  20
398
  0
VERTEX
  5
128
  8
Layer_0
  10
481.84003
  20
375
  0
VERTEX
  5
129
  8
Layer_0
  10
478.15997
  20
375
  0
VERTEX
  5
12a
  8
Layer_0
  10
478.15997
  20
397.5
  0
VERTEX
  5
12b
  8
Layer_0
  10
476.15997
  20
400
  0
VERTEX
  5
12c
  8
Layer_0
  10
459.28931
  20
400
  0
VERTEX
  5
12d
  8
Layer_0
  10
447.35992
  20
388.07062
  0
VERTEX
  5
12e
  8
Layer_0
  10
447.35992
  20
385.24219
  0
VERTEX
  5
12f
  8
Layer_0
  10
463.62341
  20
368.97876
  0
VERTEX
  5
130
  8
Layer_0
  10
461.02124
  20
366.37659
  0
VERTEX
  5
131
  8
Layer_0
  10
445.11133
  20
382.2865
  0
VERTEX
  5
132
  8
Layer_0
  10
441.92938
  20
382.64008
  0
VERTEX
  5
133
  8
Layer_0
  10
430
  20
370.71069
  0
VERTEX
  5
134
  8
Layer_0
  10
430
  20
353.84003
  0
VERTEX
  5
135
  8
Layer_0
  10
432
  20
351.84003
  0
VERTEX
  5
136
  8
Layer_0
  10
455
  20
351.84003
  0
VERTEX
  5
137
  8
Layer_0
  10
455
  20
348.15997
  0
VERTEX
  5
138
  8
Layer_0
  10
432.5
  20
348.15997
  0
VERTEX
  5
139
  8
Layer_0
  10
430
  20
346.15997
  0
VERTEX
  5
13a
  8
Layer_0
  10
430
  20
329.28931
  0
VERTEX
  5
13b
  8
Layer_0
  10
441.92938
  20
317.35992
  0
VERTEX
  5
13c
  8
Layer_0
  10
444.75781
  20
317.35992
  0
VERTEX
  5
13d
  8
Layer_0
  10
461.02124
  20
333.62341
  0
VERTEX
  5
13e
  8
Layer_0
  10
463.62341
  20
331.02124
  0
VERTEX
  5
13f
  8
Layer_0
  10
447.7135
  20
315.11133
  0
VERTEX
  5
140
  8
Layer_0
  10
447.35992
  20
311.92938
  0
VERTEX
  5
141
  8
Layer_0
  10
459.28931
  20
300
  0
VERTEX
  5
142
  8
Layer_0
  10
476.15997
  20
300
  0
VERTEX
  5
143
  8
Layer_0
  10
478.15997
  20
302
  0
VERTEX
  5
144
  8
Layer_0
  10
478.15997
  20
325
  0
VERTEX
  5
145
  8
Layer_0
  10
481.84003
  20
325
  0
VERTEX
  5
146
  8
Layer_0
  10
481.84003
  20
302.5
  0
VERTEX
  5
147
  8
Layer_0
  10
483.84003
  20
300
  0
VERTEX
  5
148
  8
Layer_0
  10
500.71069
  20
300
  0
VERTEX
  5
149
  8
Layer_0
  10
512.64008
  20
311.92938
  0
VERTEX
  5
14a
  8
Layer_0
  10
512.64008
  20
314.75781
  0
VERTEX
  5
14b
  8
Layer_0
  10
496.37659
  20
331.02124
  0
VERTEX
  5
14c
  8
Layer_0
  10
498.97876
  20
333.62341
  0
VERTEX
  5
14d
  8
Layer_0
  10
514.88867
  20
317.7135
  0
VERTEX
  5
14e
  8
Layer_0
  10
518.07062
  20
317.35992
  0
VERTEX
  5
14f
  8
Layer_0
  10
530
  20
329.28931
  0
VERTEX
  5
150
  8
Layer_0
  10
530
  20
346.15997
  0
VERTEX
  5
151
  8
Layer_0
  10
528
  20
348.15997
  0
VERTEX
  5
152
  8
Layer_0
  10
505
  20
348.15997
  0
VERTEX
  5
153
  8
Layer_0
  10
505
  20
351.84003
  0
VERTEX
  5
154
  8
Layer_0
  10
527.5
  20
351.84003
  0
VERTEX
  5
155
  8
Layer_0
  10
530
  20
353.84003
  0
VERTEX
  5
156
  8
Layer_0
  10
530
  20
370.71069
  0
VERTEX
  5
157
  8
Layer_0
  10
518.07062
  20
382.64008
  0
VERTEX
  5
158
  8
Layer_0
  10
515.24219
  20
382.64008
  0
VERTEX
  5
159
  8
Layer_0
  10
498.97876
  20
366.37659
  0
VERTEX
  5
15a
  8
Layer_0
  10
496.37659
  20
368.97876
  0
SEQEND
  0
POLYLINE
  5
15c
  8
Layer_0
  62
0
  66
1
  10
0
  20
0
  30
0
  0
VERTEX
  5
15c
  8
Layer_0
  10
508.86749
  20
285
  0
VERTEX
  5
15d
  8
Layer_0
  10
483.84003
  20
285
  0
VERTEX
  5
15e
  8
Layer_0
  10
481.84003
  20
283
  0
VERTEX
  5
15f
  8
Layer_0
  10
481.84003
  20
260
  0
VERTEX
  5
160
  8
Layer_0
  10
478.15997
  20
260
  0
VERTEX
  5
161
  8
Layer_0
  10
478.15997
  20
282.5
  0
VERTEX
  5
162
  8
Layer_0
  10
476.15997
  20
285
  0
VERTEX
  5
163
  8
Layer_0
  10
451.13251
  20
285
  0
VERTEX
  5
164
  8
Layer_0
  10
438.61871
  20
263.32556
  0
VERTEX
  5
165
  8
Layer_0
  10
439.35077
  20
260.59351
  0
VERTEX
  5
166
  8
Layer_0
  10
459.26935
  20
249.09351
  0
VERTEX
  5
167
  8
Layer_0
  10
457.42938
  20
245.90649
  0
VERTEX
  5
168
  8
Layer_0
  10
437.94379
  20
257.15649
  0
VERTEX
  5
169
  8
Layer_0
  10
434.77875
  20
256.67444
  0
VERTEX
  5
16a
  8
Layer_0
  10
422.26495
  20
235
  0
VERTEX
  5
16b
  8
Layer_0
  10
434.77875
  20
213.32556
  0
VERTEX
  5
16c
  8
Layer_0
  10
437.5108
  20
212.59351
  0
VERTEX
  5
16d
  8
Layer_0
  10
457.42938
  20
224.09351
  0
VERTEX
  5
16e
  8
Layer_0
  10
459.26935
  20
220.90649
  0
VERTEX
  5
16f
  8
Layer_0
  10
439.78381
  20
209.65649
  0
VERTEX
  5
170
  8
Layer_0
  10
438.61871
  20
206.67444
  0
VERTEX
  5
171
  8
Layer_0
  10
451.13251
  20
185
  0
VERTEX
  5
172
  8
Layer_0
  10
476.15997
  20
185
  0
VERTEX
  5
173
  8
Layer_0
  10
478.15997
  20
187
  0
VERTEX
  5
174
  8
Layer_0
  10
478.15997
  20
210
  0
VERTEX
  5
175
  8
Layer_0
  10
481.84003
  20
210
  0
VERTEX
  5
176
  8
Layer_0
  10
481.84003
  20
187.5
  0
VERTEX
  5
177
  8
Layer_0
  10
483.84003
  20
185
  0
VERTEX
  5
178
  8
Layer_0
  10
508.86749
  20
185
  0
VERTEX
  5
179
  8
Layer_0
  10
521.38129
  20
206.67444
  0
VERTEX
  5
17a
  8
Layer_0
  10
520.64923
  20
209.40649
  0
VERTEX
  5
17b
  8
Layer_0
  10
500.73065
  20
220.90649
  0
VERTEX
  5
17c
  8
Layer_0
  10
502.57062
  20
224.09351
  0
VERTEX
  5
17d
  8
Layer_0
  10
522.05621
  20
212.84351
  0
VERTEX
  5
17e
  8
Layer_0
  10
525.22125
  20
213.32556
  0
VERTEX
  5
17f
  8
Layer_0
  10
537.73505
  20
235
  0
VERTEX
  5
180
  8
Layer_0
  10
525.22125
  20
256.67444
  0
VERTEX
  5
181
  8
Layer_0
  10
522.4892
  20
257.40649
  0
VERTEX
  5
182
  8
Layer_0
  10
502.57062
  20
245.90649
  0
VERTEX
  5
183
  8
Layer_0
  10
500.73065
  20
249.09351
  0
VERTEX
  5
184
  8
Layer_0
  10
520.21619
  20
260.34351
  0
VERTEX
  5
185
  8
Layer_0
  10
521.38129
  20
263.32556
  0
VERTEX
  5
186
  8
Layer_0
  10
508.86749
  20
285
  0
SEQEND
  0
POLYLINE
  5
188
  8
Layer_0
  62
0
  66
1
  10
0
  20
0
  30
0
  0
VERTEX
  5
188
  8
Layer_0
  10
508.86749
  20
285
  0
VERTEX
  5
189
  8
Layer_0
  10
483.84003
  20
285
  0
VERTEX
  5
18a
  8
Layer_0
  10
481.84003
  20
283
  0
VERTEX
  5
18b
  8
Layer_0
  10
481.84003
  20
260
  0
VERTEX
  5
18c
  8
Layer_0
  10
478.15997
  20
260
  0
VERTEX
  5
18d
  8
Layer_0
  10
478.15997
  20
282.5
  0
VERTEX
  5
18e
  8
Layer_0
  10
476.15997
  20
285
  0
VERTEX
  5
18f
  8
Layer_0
  10
451.13251
  20
285
  0
VERTEX
  5
190
  8
Layer_0
  10
438.61871
  20
263.32556
  0
VERTEX
  5
191
  8
Layer_0
  10
439.35077
  20
260.59351
  0
VERTEX
  5
192
  8
Layer_0
  10
459.26935
  20
249.09351
  0
VERTEX
  5
193
  8
Layer_0
  10
457.42938
  20
245.90649
  0
VERTEX
  5
194
  8
Layer_0
  10
437.94379
  20
257.15649
  0
VERTEX
  5
195
  8
Layer_0
  10
434.77875
  20
256.67444
  0
VERTEX
  5
196
  8
Layer_0
  10
422.26495
  20
235
  0
VERTEX
  5
197
  8
Layer_0
  10
434.77875
  20
213.32556
  0
VERTEX
  5
198
  8
Layer_0
  10
437.5108
  20
212.59351
  0
VERTEX
  5
199
  8
Layer_0
  10
457.42938
  20
224.09351
  0
VERTEX
  5
19a
  8
Layer_0
  10
459.26935
  20
220.90649
  0
VERTEX
  5
19b
  8
Layer_0
  10
439.78381
  20
209.65649
  0
VERTEX
  5
19c
  8
Layer_0
  10
438.61871
  20
206.67444
  0
VERTEX
  5
19d
  8
Layer_0
  10
451.13251
  20
185
  0
VERTEX
  5
19e
  8
Layer_0
  10
476.15997
  20
185
  0
VERTEX
  5
19f
  8
Layer_0
  10
478.15997
  20
187
  0
VERTEX
  5
1a0
  8
Layer_0
  10
478.15997
  20
210
  0
VERTEX
  5
1a1
  8
Layer_0
  10
481.84003
  20
210
  0
VERTEX
  5
1a2
  8
Layer_0
  10
481.84003
  20
187.5
  0
VERTEX
  5
1a3
  8
Layer_0
  10
483.84003
  20
185
  0
VERTEX
  5
1a4
  8
Layer_0
  10
508.86749
  20
185
  0
VERTEX
  5
1a5
  8
Layer_0
  10
521.38129
  20
206.67444
  0
VERTEX
  5
1a6
  8
Layer_0
  10
520.64923
  20
209.40649
  0
VERTEX
  5
1a7
  8
Layer_0
  10
500.73065
  20
220.90649
  0
VERTEX
  5
1a8
  8
Layer_0
  10
502.57062
  20
224.09351
  0
VERTEX
  5
1a9
  8
Layer_0
  10
522.05621
  20
212.84351
  0
VERTEX
  5
1aa
  8
Layer_0
  10
525.22125
  20
213.32556
  0
VERTEX
  5
1ab
  8
Layer_0
  10
537.73505
  20
235
  0
VERTEX
  5
1ac
  8
Layer_0
  10
525.22125
  20
256.67444
  0
VERTEX
  5
1ad
  8
Layer_0
  10
522.4892
  20
257.40649
  0
VERTEX
  5
1ae
  8
Layer_0
  10
502.57062
  20
245.90649
  0
VERTEX
  5
1af
  8
Layer_0
  10
500.73065
  20
249.09351
  0
VERTEX
  5
1b0
  8
Layer_0
  10
520.21619
  20
260.34351
  0
VERTEX
  5
1b1
  8
Layer_0
  10
521.38129
  20
263.32556
  0
VERTEX
  5
1b2
  8
Layer_0
  10
508.86749
  20
285
  0
SEQEND
  0
POLYLINE
  5
1b4
  8
Layer_0
  62
0
  66
1
  10
0
  20
0
  30
0
  0
VERTEX
  5
1b4
  8
Layer_0
  10
643.03979
  20
511.22192
  0
VERTEX
  5
1b5
  8
Layer_0
  10
618.01233
  20
511.22192
  0
VERTEX
  5
1b6
  8
Layer_0
  10
616.01233
  20
509.22192
  0
VERTEX
  5
1b7
  8
Layer_0
  10
616.01233
  20
486.22192
  0
VERTEX
  5
1b8
  8
Layer_0
  10
612.33228
  20
486.22192
  0
VERTEX
  5
1b9
  8
Layer_0
  10
612.33228
  20
508.72192
  0
VERTEX
  5
1ba
  8
Layer_0
  10
610.33228
  20
511.22192
  0
VERTEX
  5
1bb
  8
Layer_0
  10
585.30481
  20
511.22192
  0
VERTEX
  5
1bc
  8
Layer_0
  10
572.79102
  20
489.54745
  0
VERTEX
  5
1bd
  8
Layer_0
  10
573.52307
  20
486.8154
  0
VERTEX
  5
1be
  8
Layer_0
  10
593.44165
  20
475.3154
  0
VERTEX
  5
1bf
  8
Layer_0
  10
591.60168
  20
472.12845
  0
VERTEX
  5
1c0
  8
Layer_0
  10
572.11609
  20
483.37845
  0
VERTEX
  5
1c1
  8
Layer_0
  10
568.95105
  20
482.89639
  0
VERTEX
  5
1c2
  8
Layer_0
  10
556.43726
  20
461.22192
  0
VERTEX
  5
1c3
  8
Layer_0
  10
568.95105
  20
439.54745
  0
VERTEX
  5
1c4
  8
Layer_0
  10
571.68311
  20
438.8154
  0
VERTEX
  5
1c5
  8
Layer_0
  10
591.60168
  20
450.3154
  0
VERTEX
  5
1c6
  8
Layer_0
  10
593.44165
  20
447.12845
  0
VERTEX
  5
1c7
  8
Layer_0
  10
573.95612
  20
435.87845
  0
VERTEX
  5
1c8
  8
Layer_0
  10
572.79102
  20
432.89639
  0
VERTEX
  5
1c9
  8
Layer_0
  10
585.30481
  20
411.22192
  0
VERTEX
  5
1ca
  8
Layer_0
  10
610.33228
  20
411.22192
  0
VERTEX
  5
1cb
  8
Layer_0
  10
612.33228
  20
413.22192
  0
VERTEX
  5
1cc
  8
Layer_0
  10
612.33228
  20
436.22192
  0
VERTEX
  5
1cd
  8
Layer_0
  10
616.01233
  20
436.22192
  0
VERTEX
  5
1ce
  8
Layer_0
  10
616.01233
  20
413.72192
  0
VERTEX
  5
1cf
  8
Layer_0
  10
618.01233
  20
411.22192
  0
VERTEX
  5
1d0
  8
Layer_0
  10
643.03979
  20
411.22192
  0
VERTEX
  5
1d1
  8
Layer_0
  10
655.55359
  20
432.89639
  0
VERTEX
  5
1d2
  8
Layer_0
  10
654.82153
  20
435.62845
  0
VERTEX
  5
1d3
  8
Layer_0
  10
634.90295
  20
447.12845
  0
VERTEX
  5
1d4
  8
Layer_0
  10
636.74292
  20
450.3154
  0
VERTEX
  5
1d5
  8
Layer_0
  10
656.22852
  20
439.0654
  0
VERTEX
  5
1d6
  8
Layer_0
  10
659.39355
  20
439.54745
  0
VERTEX
  5
1d7
  8
Layer_0
  10
671.90735
  20
461.22192
  0
VERTEX
  5
1d8
  8
Layer_0
  10
659.39355
  20
482.89639
  0
VERTEX
  5
1d9
  8
Layer_0
  10
656.6615
  20
483.62845
  0
VERTEX
  5
1da
  8
Layer_0
  10
636.74292
  20
472.12845
  0
VERTEX
  5
1db
  8
Layer_0
  10
634.90295
  20
475.3154
  0
VERTEX
  5
1dc
  8
Layer_0
  10
654.38849
  20
486.5654
  0
VERTEX
  5
1dd
  8
Layer_0
  10
655.55359
  20
489.54745
  0
VERTEX
  5
1de
  8
Layer_0
  10
643.03979
  20
511.22192
  0
SEQEND
  0
POLYLINE
  5
1e0
  8
Layer_0
  62
0
  66
1
  10
0
  20
0
  30
0
  0
VERTEX
  5
1e0
  8
Layer_0
  10
643.03979
  20
511.22192
  0
VERTEX
  5
1e1
  8
Layer_0
  10
618.01233
  20
511.22192
  0
VERTEX
  5
1e2
  8
Layer_0
  10
616.01233
  20
509.22192
  0
VERTEX
  5
1e3
  8
Layer_0
  10
616.01233
  20
486.22192
  0
VERTEX
  5
1e4
  8
Layer_0
  10
612.33228
  20
486.22192
  0
VERTEX
  5
1e5
  8
Layer_0
  10
612.33228
  20
508.72192
  0
VERTEX
  5
1e6
  8
Layer_0
  10
610.33228
  20
511.22192
  0
VERTEX
  5
1e7
  8
Layer_0
  10
585.30481
  20
511.22192
  0
VERTEX
  5
1e8
  8
Layer_0
  10
572.79102
  20
489.54745
  0
VERTEX
  5
1e9
  8
Layer_0
  10
573.52307
  20
486.8154
  0
VERTEX
  5
1ea
  8
Layer_0
  10
593.44165
  20
475.3154
  0
VERTEX
  5
1eb
  8
Layer_0
  10
591.60168
  20
472.12845
  0
VERTEX
  5
1ec
  8
Layer_0
  10
572.11609
  20
483.37845
  0
VERTEX
  5
1ed
  8
Layer_0
  10
568.95105
  20
482.89639
  0
VERTEX
  5
1ee
  8
Layer_0
  10
556.43726
  20
461.22192
  0
VERTEX
  5
1ef
  8
Layer_0
  10
568.95105
  20
439.54745
  0
VERTEX
  5
1f0
  8
Layer_0
  10
571.68311
  20
438.8154
  0
VERTEX
  5
1f1
  8
Layer_0
  10
591.60168
  20
450.3154
  0
VERTEX
  5
1f2
  8
Layer_0
  10
593.44165
  20
447.12845
  0
VERTEX
  5
1f3
  8
Layer_0
  10
573.95612
  20
435.87845
  0
VERTEX
  5
1f4
  8
Layer_0
  10
572.79102
  20
432.89639
  0
VERTEX
  5
1f5
  8
Layer_0
  10
585.30481
  20
411.22192
  0
VERTEX
  5
1f6
  8
Layer_0
  10
610.33228
  20
411.22192
  0
VERTEX
  5
1f7
  8
Layer_0
  10
612.33228
  20
413.22192
  0
VERTEX
  5
1f8
  8
Layer_0
  10
612.33228
  20
436.22192
  0
VERTEX
  5
1f9
  8
Layer_0
  10
616.01233
  20
436.22192
  0
VERTEX
  5
1fa
  8
Layer_0
  10
616.01233
  20
413.72192
  0
VERTEX
  5
1fb
  8
Layer_0
  10
618.01233
  20
411.22192
  0
VERTEX
  5
1fc
  8
Layer_0
  10
643.03979
  20
411.22192
  0
VERTEX
  5
1fd
  8
Layer_0
  10
655.55359
  20
432.89639
  0
VERTEX
  5
1fe
  8
Layer_0
  10
654.82153
  20
435.62845
  0
VERTEX
  5
1ff
  8
Layer_0
  10
634.90295
  20
447.12845
  0
VERTEX
  5
200
  8
Layer_0
  10
636.74292
  20
450.3154
  0
VERTEX
  5
201
  8
Layer_0
  10
656.22852
  20
439.0654
  0
VERTEX
  5
202
  8
Layer_0
  10
659.39355
  20
439.54745
  0
VERTEX
  5
203
  8
Layer_0
  10
671.90735
  20
461.22192
  0
VERTEX
  5
204
  8
Layer_0
  10
659.39355
  20
482.89639
  0
VERTEX
  5
205
  8
Layer_0
  10
656.6615
  20
483.62845
  0
VERTEX
  5
206
  8
Layer_0
  10
636.74292
  20
472.12845
  0
VERTEX
  5
207
  8
Layer_0
  10
634.90295
  20
475.3154
  0
VERTEX
  5
208
  8
Layer_0
  10
654.38849
  20
486.5654
  0
VERTEX
  5
209
  8
Layer_0
  10
655.55359
  20
489.54745
  0
VERTEX
  5
20a
  8
Layer_0
  10
643.03979
  20
511.22192
  0
SEQEND
  0
POLYLINE
  5
20c
  8
Layer_0
  62
0
  66
1
  10
0
  20
0
  30
0
  0
VERTEX
  5
20c
  8
Layer_0
  10
633.54889
  20
363.20068
  0
VERTEX
  5
20d
  8
Layer_0
  10
649.4588
  20
379.1106
  0
VERTEX
  5
20e
  8
Layer_0
  10
649.81238
  20
382.29254
  0
VERTEX
  5
20f
  8
Layer_0
  10
637.883
  20
394.22192
  0
VERTEX
  5
210
  8
Layer_0
  10
621.01233
  20
394.22192
  0
VERTEX
  5
211
  8
Layer_0
  10
619.01233
  20
392.22192
  0
VERTEX
  5
212
  8
Layer_0
  10
619.01233
  20
369.22192
  0
VERTEX
  5
213
  8
Layer_0
  10
615.33228
  20
369.22192
  0
VERTEX
  5
214
  8
Layer_0
  10
615.33228
  20
391.72192
  0
VERTEX
  5
215
  8
Layer_0
  10
613.33228
  20
394.22192
  0
VERTEX
  5
216
  8
Layer_0
  10
596.46161
  20
394.22192
  0
VERTEX
  5
217
  8
Layer_0
  10
584.53223
  20
382.29254
  0
VERTEX
  5
218
  8
Layer_0
  10
584.53223
  20
379.46411
  0
VERTEX
  5
219
  8
Layer_0
  10
600.79572
  20
363.20068
  0
VERTEX
  5
21a
  8
Layer_0
  10
598.19354
  20
360.59851
  0
VERTEX
  5
21b
  8
Layer_0
  10
582.28363
  20
376.50842
  0
VERTEX
  5
21c
  8
Layer_0
  10
579.10168
  20
376.862
  0
VERTEX
  5
21d
  8
Layer_0
  10
567.1723
  20
364.93262
  0
VERTEX
  5
21e
  8
Layer_0
  10
567.1723
  20
348.06195
  0
VERTEX
  5
21f
  8
Layer_0
  10
569.1723
  20
346.06195
  0
VERTEX
  5
220
  8
Layer_0
  10
592.1723
  20
346.06195
  0
VERTEX
  5
221
  8
Layer_0
  10
592.1723
  20
342.3819
  0
VERTEX
  5
222
  8
Layer_0
  10
569.6723
  20
342.3819
  0
VERTEX
  5
223
  8
Layer_0
  10
567.1723
  20
340.3819
  0
VERTEX
  5
224
  8
Layer_0
  10
567.1723
  20
323.51123
  0
VERTEX
  5
225
  8
Layer_0
  10
579.10168
  20
311.58185
  0
VERTEX
  5
226
  8
Layer_0
  10
581.93011
  20
311.58185
  0
VERTEX
  5
227
  8
Layer_0
  10
598.19354
  20
327.84534
  0
VERTEX
  5
228
  8
Layer_0
  10
600.79572
  20
325.24316
  0
VERTEX
  5
229
  8
Layer_0
  10
584.8858
  20
309.33325
  0
VERTEX
  5
22a
  8
Layer_0
  10
584.53223
  20
306.15131
  0
VERTEX
  5
22b
  8
Layer_0
  10
596.46161
  20
294.22192
  0
VERTEX
  5
22c
  8
Layer_0
  10
613.33228
  20
294.22192
  0
VERTEX
  5
22d
  8
Layer_0
  10
615.33228
  20
296.22192
  0
VERTEX
  5
22e
  8
Layer_0
  10
615.33228
  20
319.22192
  0
VERTEX
  5
22f
  8
Layer_0
  10
619.01233
  20
319.22192
  0
VERTEX
  5
230
  8
Layer_0
  10
619.01233
  20
296.72192
  0
VERTEX
  5
231
  8
Layer_0
  10
621.01233
  20
294.22192
  0
VERTEX
  5
232
  8
Layer_0
  10
637.883
  20
294.22192
  0
VERTEX
  5
233
  8
Layer_0
  10
649.81238
  20
306.15131
  0
VERTEX
  5
234
  8
Layer_0
  10
649.81238
  20
308.97974
  0
VERTEX
  5
235
  8
Layer_0
  10
633.54889
  20
325.24316
  0
VERTEX
  5
236
  8
Layer_0
  10
636.15106
  20
327.84534
  0
VERTEX
  5
237
  8
Layer_0
  10
652.06097
  20
311.93542
  0
VERTEX
  5
238
  8
Layer_0
  10
655.24292
  20
311.58185
  0
VERTEX
  5
239
  8
Layer_0
  10
667.1723
  20
323.51123
  0
VERTEX
  5
23a
  8
Layer_0
  10
667.1723
  20
340.3819
  0
VERTEX
  5
23b
  8
Layer_0
  10
665.1723
  20
342.3819
  0
VERTEX
  5
23c
  8
Layer_0
  10
642.1723
  20
342.3819
  0
VERTEX
  5
23d
  8
Layer_0
  10
642.1723
  20
346.06195
  0
VERTEX
  5
23e
  8
Layer_0
  10
664.6723
  20
346.06195
  0
VERTEX
  5
23f
  8
Layer_0
  10
667.1723
  20
348.06195
  0
VERTEX
  5
240
  8
Layer_0
  10
667.1723
  20
364.93262
  0
VERTEX
  5
241
  8
Layer_0
  10
655.24292
  20
376.862
  0
VERTEX
  5
242
  8
Layer_0
  10
652.41449
  20
376.862
  0
VERTEX
  5
243
  8
Layer_0
  10
636.15106
  20
360.59851
  0
VERTEX
  5
244
  8
Layer_0
  10
633.54889
  20
363.20068
  0
SEQEND
  0
POLYLINE
  5
246
  8
Layer_0
  62
0
  66
1
  10
0
  20
0
  30
0
  0
VERTEX
  5
246
  8
Layer_0
  10
633.54889
  20
363.20068
  0
VERTEX
  5
247
  8
Layer_0
  10
649.4588
  20
379.1106
  0
VERTEX
  5
248
  8
Layer_0
  10
649.81238
  20
382.29254
  0
VERTEX
  5
249
  8
Layer_0
  10
637.883
  20
394.22192
  0
VERTEX
  5
24a
  8
Layer_0
  10
621.01233
  20
394.22192
  0
VERTEX
  5
24b
  8
Layer_0
  10
619.01233
  20
392.22192
  0
VERTEX
  5
24c
  8
Layer_0
  10
619.01233
  20
369.22192
  0
VERTEX
  5
24d
  8
Layer_0
  10
615.33228
  20
369.22192
  0
VERTEX
  5
24e
  8
Layer_0
  10
615.33228
  20
391.72192
  0
VERTEX
  5
24f
  8
Layer_0
  10
613.33228
  20
394.22192
  0
VERTEX
  5
250
  8
Layer_0
  10
596.46161
  20
394.22192
  0
VERTEX
  5
251
  8
Layer_0
  10
584.53223
  20
382.29254
  0
VERTEX
  5
252
  8
Layer_0
  10
584.53223
  20
379.46411
  0
VERTEX
  5
253
  8
Layer_0
  10
600.79572
  20
363.20068
  0
VERTEX
  5
254
  8
Layer_0
  10
598.19354
  20
360.59851
  0
VERTEX
  5
255
  8
Layer_0
  10
582.28363
  20
376.50842
  0
VERTEX
  5
256
  8
Layer_0
  10
579.10168
  20
376.862
  0
VERTEX
  5
257
  8
Layer_0
  10
567.1723
  20
364.93262
  0
VERTEX
  5
258
  8
Layer_0
  10
567.1723
  20
348.06195
  0
VERTEX
  5
259
  8
Layer_0
  10
569.1723
  20
346.06195
  0
VERTEX
  5
25a
  8
Layer_0
  10
592.1723
  20
346.06195
  0
VERTEX
  5
25b
  8
Layer_0
  10
592.1723
  20
342.3819
  0
VERTEX
  5
25c
  8
Layer_0
  10
569.6723
  20
342.3819
  0
VERTEX
  5
25d
  8
Layer_0
  10
567.1723
  20
340.3819
  0
VERTEX
  5
25e
  8
Layer_0
  10
567.1723
  20
323.51123
  0
VERTEX
  5
25f
  8
Layer_0
  10
579.10168
  20
311.58185
  0
VERTEX
  5
260
  8
Layer_0
  10
581.93011
  20
311.58185
  0
VERTEX
  5
261
  8
Layer_0
  10
598.19354
  20
327.84534
  0
VERTEX
  5
262
  8
Layer_0
  10
600.79572
  20
325.24316
  0
VERTEX
  5
263
  8
Layer_0
  10
584.8858
  20
309.33325
  0
VERTEX
  5
264
  8
Layer_0
  10
584.53223
  20
306.15131
  0
VERTEX
  5
265
  8
Layer_0
  10
596.46161
  20
294.22192
  0
VERTEX
  5
266
  8
Layer_0
  10
613.33228
  20
294.22192
  0
VERTEX
  5
267
  8
Layer_0
  10
615.33228
  20
296.22192
  0
VERTEX
  5
268
  8
Layer_0
  10
615.33228
  20
319.22192
  0
VERTEX
  5
269
  8
Layer_0
  10
619.01233
  20
319.22192
  0
VERTEX
  5
26a
  8
Layer_0
  10
619.01233
  20
296.72192
  0
VERTEX
  5
26b
  8
Layer_0
  10
621.01233
  20
294.22192
  0
VERTEX
  5
26c
  8
Layer_0
  10
637.883
  20
294.22192
  0
VERTEX
  5
26d
  8
Layer_0
  10
649.81238
  20
306.15131
  0
VERTEX
  5
26e
  8
Layer_0
  10
649.81238
  20
308.97974
  0
VERTEX
  5
26f
  8
Layer_0
  10
633.54889
  20
325.24316
  0
VERTEX
  5
270
  8
Layer_0
  10
636.15106
  20
327.84534
  0
VERTEX
  5
271
  8
Layer_0
  10
652.06097
  20
311.93542
  0
VERTEX
  5
272
  8
Layer_0
  10
655.24292
  20
311.58185
  0
VERTEX
  5
273
  8
Layer_0
  10
667.1723
  20
323.51123
  0
VERTEX
  5
274
  8
Layer_0
  10
667.1723
  20
340.3819
  0
VERTEX
  5
275
  8
Layer_0
  10
665.1723
  20
342.3819
  0
VERTEX
  5
276
  8
Layer_0
  10
642.1723
  20
342.3819
  0
VERTEX
  5
277
  8
Layer_0
  10
642.1723
  20
346.06195
  0
VERTEX
  5
278
  8
Layer_0
  10
664.6723
  20
346.06195
  0
VERTEX
  5
279
  8
Layer_0
  10
667.1723
  20
348.06195
  0
VERTEX
  5
27a
  8
Layer_0
  10
667.1723
  20
364.93262
  0
VERTEX
  5
27b
  8
Layer_0
  10
655.24292
  20
376.862
  0
VERTEX
  5
27c
  8
Layer_0
  10
652.41449
  20
376.862
  0
VERTEX
  5
27d
  8
Layer_0
  10
636.15106
  20
360.59851
  0
VERTEX
  5
27e
  8
Layer_0
  10
633.54889
  20
363.20068
  0
SEQEND
  0
POLYLINE
  5
280
  8
Layer_0
  62
0
  66
1
  10
0
  20
0
  30
0
  0
VERTEX
  5
280
  8
Layer_0
  10
646.03979
  20
279.22192
  0
VERTEX
  5
281
  8
Layer_0
  10
621.01233
  20
279.22192
  0
VERTEX
  5
282
  8
Layer_0
  10
619.01233
  20
277.22192
  0
VERTEX
  5
283
  8
Layer_0
  10
619.01233
  20
254.22192
  0
VERTEX
  5
284
  8
Layer_0
  10
615.33228
  20
254.22192
  0
VERTEX
  5
285
  8
Layer_0
  10
615.33228
  20
276.72192
  0
VERTEX
  5
286
  8
Layer_0
  10
613.33228
  20
279.22192
  0
VERTEX
  5
287
  8
Layer_0
  10
588.30481
  20
279.22192
  0
VERTEX
  5
288
  8
Layer_0
  10
575.79102
  20
257.54749
  0
VERTEX
  5
289
  8
Layer_0
  10
576.52307
  20
254.81543
  0
VERTEX
  5
28a
  8
Layer_0
  10
596.44165
  20
243.31543
  0
VERTEX
  5
28b
  8
Layer_0
  10
594.60168
  20
240.12842
  0
VERTEX
  5
28c
  8
Layer_0
  10
575.11609
  20
251.37842
  0
VERTEX
  5
28d
  8
Layer_0
  10
571.95105
  20
250.89636
  0
VERTEX
  5
28e
  8
Layer_0
  10
559.43726
  20
229.22192
  0
VERTEX
  5
28f
  8
Layer_0
  10
571.95105
  20
207.54749
  0
VERTEX
  5
290
  8
Layer_0
  10
574.68311
  20
206.81543
  0
VERTEX
  5
291
  8
Layer_0
  10
594.60168
  20
218.31543
  0
VERTEX
  5
292
  8
Layer_0
  10
596.44165
  20
215.12842
  0
VERTEX
  5
293
  8
Layer_0
  10
576.95612
  20
203.87842
  0
VERTEX
  5
294
  8
Layer_0
  10
575.79102
  20
200.89636
  0
VERTEX
  5
295
  8
Layer_0
  10
588.30481
  20
179.22192
  0
VERTEX
  5
296
  8
Layer_0
  10
613.33228
  20
179.22192
  0
VERTEX
  5
297
  8
Layer_0
  10
615.33228
  20
181.22192
  0
VERTEX
  5
298
  8
Layer_0
  10
615.33228
  20
204.22192
  0
VERTEX
  5
299
  8
Layer_0
  10
619.01233
  20
204.22192
  0
VERTEX
  5
29a
  8
Layer_0
  10
619.01233
  20
181.72192
  0
VERTEX
  5
29b
  8
Layer_0
  10
621.01233
  20
179.22192
  0
VERTEX
  5
29c
  8
Layer_0
  10
646.03979
  20
179.22192
  0
VERTEX
  5
29d
  8
Layer_0
  10
658.55359
  20
200.89636
  0
VERTEX
  5
29e
  8
Layer_0
  10
657.82153
  20
203.62842
  0
VERTEX
  5
29f
  8
Layer_0
  10
637.90295
  20
215.12842
  0
VERTEX
  5
2a0
  8
Layer_0
  10
639.74292
  20
218.31543
  0
VERTEX
  5
2a1
  8
Layer_0
  10
659.22852
  20
207.06543
  0
VERTEX
  5
2a2
  8
Layer_0
  10
662.39355
  20
207.54749
  0
VERTEX
  5
2a3
  8
Layer_0
  10
674.90735
  20
229.22192
  0
VERTEX
  5
2a4
  8
Layer_0
  10
662.39355
  20
250.89636
  0
VERTEX
  5
2a5
  8
Layer_0
  10
659.6615
  20
251.62842
  0
VERTEX
  5
2a6
  8
Layer_0
  10
639.74292
  20
240.12842
  0
VERTEX
  5
2a7
  8
Layer_0
  10
637.90295
  20
243.31543
  0
VERTEX
  5
2a8
  8
Layer_0
  10
657.38849
  20
254.56543
  0
VERTEX
  5
2a9
  8
Layer_0
  10
658.55359
  20
257.54749
  0
VERTEX
  5
2aa
  8
Layer_0
  10
646.03979
  20
279.22192
  0
SEQEND
  0
POLYLINE
  5
2ac
  8
Layer_0
  62
0
  66
1
  10
0
  20
0
  30
0
  0
VERTEX
  5
2ac
  8
Layer_0
  10
646.03979
  20
279.22192
  0
VERTEX
  5
2ad
  8
Layer_0
  10
621.01233
  20
279.22192
  0
VERTEX
  5
2ae
  8
Layer_0
  10
619.01233
  20
277.22192
  0
VERTEX
  5
2af
  8
Layer_0
  10
619.01233
  20
254.22192
  0
VERTEX
  5
2b0
  8
Layer_0
  10
615.33228
  20
254.22192
  0
VERTEX
  5
2b1
  8
Layer_0
  10
615.33228
  20
276.72192
  0
VERTEX
  5
2b2
  8
Layer_0
  10
613.33228
  20
279.22192
  0
VERTEX
  5
2b3
  8
Layer_0
  10
588.30481
  20
279.22192
  0
VERTEX
  5
2b4
  8
Layer_0
  10
575.79102
  20
257.54749
  0
VERTEX
  5
2b5
  8
Layer_0
  10
576.52307
  20
254.81543
  0
VERTEX
  5
2b6
  8
Layer_0
  10
596.44165
  20
243.31543
  0
VERTEX
  5
2b7
  8
Layer_0
  10
594.60168
  20
240.12842
  0
VERTEX
  5
2b8
  8
Layer_0
  10
575.11609
  20
251.37842
  0
VERTEX
  5
2b9
  8
Layer_0
  10
571.95105
  20
250.89636
  0
VERTEX
  5
2ba
  8
Layer_0
  10
559.43726
  20
229.22192
  0
VERTEX
  5
2bb
  8
Layer_0
  10
571.95105
  20
207.54749
  0
VERTEX
  5
2bc
  8
Layer_0
  10
574.68311
  20
206.81543
  0
VERTEX
  5
2bd
  8
Layer_0
  10
594.60168
  20
218.31543
  0
VERTEX
  5
2be
  8
Layer_0
  10
596.44165
  20
215.12842
  0
VERTEX
  5
2bf
  8
Layer_0
  10
576.95612
  20
203.87842
  0
VERTEX
  5
2c0
  8
Layer_0
  10
575.79102
  20
200.89636
  0
VERTEX
  5
2c1
  8
Layer_0
  10
588.30481
  20
179.22192
  0
VERTEX
  5
2c2
  8
Layer_0
  10
613.33228
  20
179.22192
  0
VERTEX
  5
2c3
  8
Layer_0
  10
615.33228
  20
181.22192
  0
VERTEX
  5
2c4
  8
Layer_0
  10
615.33228
  20
204.22192
  0
VERTEX
  5
2c5
  8
Layer_0
  10
619.01233
  20
204.22192
  0
VERTEX
  5
2c6
  8
Layer_0
  10
619.01233
  20
181.72192
  0
VERTEX
  5
2c7
  8
Layer_0
  10
621.01233
  20
179.22192
  0
VERTEX
  5
2c8
  8
Layer_0
  10
646.03979
  20
179.22192
  0
VERTEX
  5
2c9
  8
Layer_0
  10
658.55359
  20
200.89636
  0
VERTEX
  5
2ca
  8
Layer_0
  10
657.82153
  20
203.62842
  0
VERTEX
  5
2cb
  8
Layer_0
  10
637.90295
  20
215.12842
  0
VERTEX
  5
2cc
  8
Layer_0
  10
639.74292
  20
218.31543
  0
VERTEX
  5
2cd
  8
Layer_0
  10
659.22852
  20
207.06543
  0
VERTEX
  5
2ce
  8
Layer_0
  10
662.39355
  20
207.54749
  0
VERTEX
  5
2cf
  8
Layer_0
  10
674.90735
  20
229.22192
  0
VERTEX
  5
2d0
  8
Layer_0
  10
662.39355
  20
250.89636
  0
VERTEX
  5
2d1
  8
Layer_0
  10
659.6615
  20
251.62842
  0
VERTEX
  5
2d2
  8
Layer_0
  10
639.74292
  20
240.12842
  0
VERTEX
  5
2d3
  8
Layer_0
  10
637.90295
  20
243.31543
  0
VERTEX
  5
2d4
  8
Layer_0
  10
657.38849
  20
254.56543
  0
VERTEX
  5
2d5
  8
Layer_0
  10
658.55359
  20
257.54749
  0
VERTEX
  5
2d6
  8
Layer_0
  10
646.03979
  20
279.22192
  0
SEQEND
  0
POLYLINE
  5
2d8
  8
Layer_0
  62
0
  66
1
  10
0
  20
0
  30
0
  0
VERTEX
  5
2d8
  8
Layer_0
  10
767.67822
  20
514.34924
  0
VERTEX
  5
2d9
  8
Layer_0
  10
742.6507
  20
514.34924
  0
VERTEX
  5
2da
  8
Layer_0
  10
740.6507
  20
512.34924
  0
VERTEX
  5
2db
  8
Layer_0
  10
740.6507
  20
489.34924
  0
VERTEX
  5
2dc
  8
Layer_0
  10
736.9707
  20
489.34924
  0
VERTEX
  5
2dd
  8
Layer_0
  10
736.9707
  20
511.84924
  0
VERTEX
  5
2de
  8
Layer_0
  10
734.9707
  20
514.34924
  0
VERTEX
  5
2df
  8
Layer_0
  10
709.94318
  20
514.34924
  0
VERTEX
  5
2e0
  8
Layer_0
  10
697.42944
  20
492.67477
  0
VERTEX
  5
2e1
  8
Layer_0
  10
698.1615
  20
489.94272
  0
VERTEX
  5
2e2
  8
Layer_0
  10
718.08008
  20
478.44272
  0
VERTEX
  5
2e3
  8
Layer_0
  10
716.24005
  20
475.25577
  0
VERTEX
  5
2e4
  8
Layer_0
  10
696.75452
  20
486.50577
  0
VERTEX
  5
2e5
  8
Layer_0
  10
693.58942
  20
486.02371
  0
VERTEX
  5
2e6
  8
Layer_0
  10
681.07568
  20
464.34924
  0
VERTEX
  5
2e7
  8
Layer_0
  10
693.58942
  20
442.67477
  0
VERTEX
  5
2e8
  8
Layer_0
  10
696.32147
  20
441.94272
  0
VERTEX
  5
2e9
  8
Layer_0
  10
716.24005
  20
453.44272
  0
VERTEX
  5
2ea
  8
Layer_0
  10
718.08008
  20
450.25577
  0
VERTEX
  5
2eb
  8
Layer_0
  10
698.59448
  20
439.00577
  0
VERTEX
  5
2ec
  8
Layer_0
  10
697.42944
  20
436.02371
  0
VERTEX
  5
2ed
  8
Layer_0
  10
709.94318
  20
414.34924
  0
VERTEX
  5
2ee
  8
Layer_0
  10
734.9707
  20
414.34924
  0
VERTEX
  5
2ef
  8
Layer_0
  10
736.9707
  20
416.34924
  0
VERTEX
  5
2f0
  8
Layer_0
  10
736.9707
  20
439.34924
  0
VERTEX
  5
2f1
  8
Layer_0
  10
740.6507
  20
439.34924
  0
VERTEX
  5
2f2
  8
Layer_0
  10
740.6507
  20
416.84924
  0
VERTEX
  5
2f3
  8
Layer_0
  10
742.6507
  20
414.34924
  0
VERTEX
  5
2f4
  8
Layer_0
  10
767.67822
  20
414.34924
  0
VERTEX
  5
2f5
  8
Layer_0
  10
780.19196
  20
436.02371
  0
VERTEX
  5
2f6
  8
Layer_0
  10
779.45993
  20
438.75577
  0
VERTEX
  5
2f7
  8
Layer_0
  10
759.54132
  20
450.25577
  0
VERTEX
  5
2f8
  8
Layer_0
  10
761.38135
  20
453.44272
  0
VERTEX
  5
2f9
  8
Layer_0
  10
780.86691
  20
442.19272
  0
VERTEX
  5
2fa
  8
Layer_0
  10
784.03198
  20
442.67477
  0
VERTEX
  5
2fb
  8
Layer_0
  10
796.54572
  20
464.34924
  0
VERTEX
  5
2fc
  8
Layer_0
  10
784.03198
  20
486.02371
  0
VERTEX
  5
2fd
  8
Layer_0
  10
781.29993
  20
486.75577
  0
VERTEX
  5
2fe
  8
Layer_0
  10
761.38135
  20
475.25577
  0
VERTEX
  5
2ff
  8
Layer_0
  10
759.54132
  20
478.44272
  0
VERTEX
  5
300
  8
Layer_0
  10
779.02692
  20
489.69272
  0
VERTEX
  5
301
  8
Layer_0
  10
780.19196
  20
492.67477
  0
VERTEX
  5
302
  8
Layer_0
  10
767.67822
  20
514.34924
  0
SEQEND
  0
POLYLINE
  5
304
  8
Layer_0
  62
0
  66
1
  10
0
  20
0
  30
0
  0
VERTEX
  5
304
  8
Layer_0
  10
767.67822
  20
514.34924
  0
VERTEX
  5
305
  8
Layer_0
  10
742.6507
  20
514.34924
  0
VERTEX
  5
306
  8
Layer_0
  10
740.6507
  20
512.34924
  0
VERTEX
  5
307
  8
Layer_0
  10
740.6507
  20
489.34924
  0
VERTEX
  5
308
  8
Layer_0
  10
736.9707
  20
489.34924
  0
VERTEX
  5
309
  8
Layer_0
  10
736.9707
  20
511.84924
  0
VERTEX
  5
30a
  8
Layer_0
  10
734.9707
  20
514.34924
  0
VERTEX
  5
30b
  8
Layer_0
  10
709.94318
  20
514.34924
  0
VERTEX
  5
30c
  8
Layer_0
  10
697.42944
  20
492.67477
  0
VERTEX
  5
30d
  8
Layer_0
  10
698.1615
  20
489.94272
  0
VERTEX
  5
30e
  8
Layer_0
  10
718.08008
  20
478.44272
  0
VERTEX
  5
30f
  8
Layer_0
  10
716.24005
  20
475.25577
  0
VERTEX
  5
310
  8
Layer_0
  10
696.75452
  20
486.50577
  0
VERTEX
  5
311
  8
Layer_0
  10
693.58942
  20
486.02371
  0
VERTEX
  5
312
  8
Layer_0
  10
681.07568
  20
464.34924
  0
VERTEX
  5
313
  8
Layer_0
  10
693.58942
  20
442.67477
  0
VERTEX
  5
314
  8
Layer_0
  10
696.32147
  20
441.94272
  0
VERTEX
  5
315
  8
Layer_0
  10
716.24005
  20
453.44272
  0
VERTEX
  5
316
  8
Layer_0
  10
718.08008
  20
450.25577
  0
VERTEX
  5
317
  8
Layer_0
  10
698.59448
  20
439.00577
  0
VERTEX
  5
318
  8
Layer_0
  10
697.42944
  20
436.02371
  0
VERTEX
  5
319
  8
Layer_0
  10
709.94318
  20
414.34924
  0
VERTEX
  5
31a
  8
Layer_0
  10
734.9707
  20
414.34924
  0
VERTEX
  5
31b
  8
Layer_0
  10
736.9707
  20
416.34924
  0
VERTEX
  5
31c
  8
Layer_0
  10
736.9707
  20
439.34924
  0
VERTEX
  5
31d
  8
Layer_0
  10
740.6507
  20
439.34924
  0
VERTEX
  5
31e
  8
Layer_0
  10
740.6507
  20
416.84924
  0
VERTEX
  5
31f
  8
Layer_0
  10
742.6507
  20
414.34924
  0
VERTEX
  5
320
  8
Layer_0
  10
767.67822
  20
414.34924
  0
VERTEX
  5
321
  8
Layer_0
  10
780.19196
  20
436.02371
  0
VERTEX
  5
322
  8
Layer_0
  10
779.45993
  20
438.75577
  0
VERTEX
  5
323
  8
Layer_0
  10
759.54132
  20
450.25577
  0
VERTEX
  5
324
  8
Layer_0
  10
761.38135
  20
453.44272
  0
VERTEX
  5
325
  8
Layer_0
  10
780.86691
  20
442.19272
  0
VERTEX
  5
326
  8
Layer_0
  10
784.03198
  20
442.67477
  0
VERTEX
  5
327
  8
Layer_0
  10
796.54572
  20
464.34924
  0
VERTEX
  5
328
  8
Layer_0
  10
784.03198
  20
486.02371
  0
VERTEX
  5
329
  8
Layer_0
  10
781.29993
  20
486.75577
  0
VERTEX
  5
32a
  8
Layer_0
  10
761.38135
  20
475.25577
  0
VERTEX
  5
32b
  8
Layer_0
  10
759.54132
  20
478.44272
  0
VERTEX
  5
32c
  8
Layer_0
  10
779.02692
  20
489.69272
  0
VERTEX
  5
32d
  8
Layer_0
  10
780.19196
  20
492.67477
  0
VERTEX
  5
32e
  8
Layer_0
  10
767.67822
  20
514.34924
  0
SEQEND
  0
POLYLINE
  5
330
  8
Layer_0
  62
0
  66
1
  10
0
  20
0
  30
0
  0
VERTEX
  5
330
  8
Layer_0
  10
758.18729
  20
366.328
  0
VERTEX
  5
331
  8
Layer_0
  10
774.0972
  20
382.23792
  0
VERTEX
  5
332
  8
Layer_0
  10
774.45074
  20
385.41986
  0
VERTEX
  5
333
  8
Layer_0
  10
762.52136
  20
397.34924
  0
VERTEX
  5
334
  8
Layer_0
  10
745.6507
  20
397.34924
  0
VERTEX
  5
335
  8
Layer_0
  10
743.6507
  20
395.34924
  0
VERTEX
  5
336
  8
Layer_0
  10
743.6507
  20
372.34924
  0
VERTEX
  5
337
  8
Layer_0
  10
739.9707
  20
372.34924
  0
VERTEX
  5
338
  8
Layer_0
  10
739.9707
  20
394.84924
  0
VERTEX
  5
339
  8
Layer_0
  10
737.9707
  20
397.34924
  0
VERTEX
  5
33a
  8
Layer_0
  10
721.10004
  20
397.34924
  0
VERTEX
  5
33b
  8
Layer_0
  10
709.17065
  20
385.41986
  0
VERTEX
  5
33c
  8
Layer_0
  10
709.17065
  20
382.59143
  0
VERTEX
  5
33d
  8
Layer_0
  10
725.43411
  20
366.328
  0
VERTEX
  5
33e
  8
Layer_0
  10
722.83194
  20
363.72583
  0
VERTEX
  5
33f
  8
Layer_0
  10
706.92206
  20
379.63574
  0
VERTEX
  5
340
  8
Layer_0
  10
703.74005
  20
379.98932
  0
VERTEX
  5
341
  8
Layer_0
  10
691.81067
  20
368.05994
  0
VERTEX
  5
342
  8
Layer_0
  10
691.81067
  20
351.18927
  0
VERTEX
  5
343
  8
Layer_0
  10
693.81067
  20
349.18927
  0
VERTEX
  5
344
  8
Layer_0
  10
716.8107
  20
349.18927
  0
VERTEX
  5
345
  8
Layer_0
  10
716.8107
  20
345.50922
  0
VERTEX
  5
346
  8
Layer_0
  10
694.31067
  20
345.50922
  0
VERTEX
  5
347
  8
Layer_0
  10
691.81067
  20
343.50922
  0
VERTEX
  5
348
  8
Layer_0
  10
691.81067
  20
326.63855
  0
VERTEX
  5
349
  8
Layer_0
  10
703.74005
  20
314.70917
  0
VERTEX
  5
34a
  8
Layer_0
  10
706.56848
  20
314.70917
  0
VERTEX
  5
34b
  8
Layer_0
  10
722.83194
  20
330.97266
  0
VERTEX
  5
34c
  8
Layer_0
  10
725.43411
  20
328.37048
  0
VERTEX
  5
34d
  8
Layer_0
  10
709.5242
  20
312.46057
  0
VERTEX
  5
34e
  8
Layer_0
  10
709.17065
  20
309.27863
  0
VERTEX
  5
34f
  8
Layer_0
  10
721.10004
  20
297.34924
  0
VERTEX
  5
350
  8
Layer_0
  10
737.9707
  20
297.34924
  0
VERTEX
  5
351
  8
Layer_0
  10
739.9707
  20
299.34924
  0
VERTEX
  5
352
  8
Layer_0
  10
739.9707
  20
322.34924
  0
VERTEX
  5
353
  8
Layer_0
  10
743.6507
  20
322.34924
  0
VERTEX
  5
354
  8
Layer_0
  10
743.6507
  20
299.84924
  0
VERTEX
  5
355
  8
Layer_0
  10
745.6507
  20
297.34924
  0
VERTEX
  5
356
  8
Layer_0
  10
762.52136
  20
297.34924
  0
VERTEX
  5
357
  8
Layer_0
  10
774.45074
  20
309.27863
  0
VERTEX
  5
358
  8
Layer_0
  10
774.45074
  20
312.10706
  0
VERTEX
  5
359
  8
Layer_0
  10
758.18729
  20
328.37048
  0
VERTEX
  5
35a
  8
Layer_0
  10
760.78946
  20
330.97266
  0
VERTEX
  5
35b
  8
Layer_0
  10
776.69934
  20
315.06274
  0
VERTEX
  5
35c
  8
Layer_0
  10
779.88132
  20
314.70917
  0
VERTEX
  5
35d
  8
Layer_0
  10
791.8107
  20
326.63855
  0
VERTEX
  5
35e
  8
Layer_0
  10
791.8107
  20
343.50922
  0
VERTEX
  5
35f
  8
Layer_0
  10
789.8107
  20
345.50922
  0
VERTEX
  5
360
  8
Layer_0
  10
766.8107
  20
345.50922
  0
VERTEX
  5
361
  8
Layer_0
  10
766.8107
  20
349.18927
  0
VERTEX
  5
362
  8
Layer_0
  10
789.3107
  20
349.18927
  0
VERTEX
  5
363
  8
Layer_0
  10
791.8107
  20
351.18927
  0
VERTEX
  5
364
  8
Layer_0
  10
791.8107
  20
368.05994
  0
VERTEX
  5
365
  8
Layer_0
  10
779.88132
  20
379.98932
  0
VERTEX
  5
366
  8
Layer_0
  10
777.05292
  20
379.98932
  0
VERTEX
  5
367
  8
Layer_0
  10
760.78946
  20
363.72583
  0
VERTEX
  5
368
  8
Layer_0
  10
758.18729
  20
366.328
  0
SEQEND
  0
POLYLINE
  5
36a
  8
Layer_0
  62
0
  66
1
  10
0
  20
0
  30
0
  0
VERTEX
  5
36a
  8
Layer_0
  10
758.18729
  20
366.328
  0
VERTEX
  5
36b
  8
Layer_0
  10
774.0972
  20
382.23792
  0
VERTEX
  5
36c
  8
Layer_0
  10
774.45074
  20
385.41986
  0
VERTEX
  5
36d
  8
Layer_0
  10
762.52136
  20
397.34924
  0
VERTEX
  5
36e
  8
Layer_0
  10
745.6507
  20
397.34924
  0
VERTEX
  5
36f
  8
Layer_0
  10
743.6507
  20
395.34924
  0
VERTEX
  5
370
  8
Layer_0
  10
743.6507
  20
372.34924
  0
VERTEX
  5
371
  8
Layer_0
  10
739.9707
  20
372.34924
  0
VERTEX
  5
372
  8
Layer_0
  10
739.9707
  20
394.84924
  0
VERTEX
  5
373
  8
Layer_0
  10
737.9707
  20
397.34924
  0
VERTEX
  5
374
  8
Layer_0
  10
721.10004
  20
397.34924
  0
VERTEX
  5
375
  8
Layer_0
  10
709.17065
  20
385.41986
  0
VERTEX
  5
376
  8
Layer_0
  10
709.17065
  20
382.59143
  0
VERTEX
  5
377
  8
Layer_0
  10
725.43411
  20
366.328
  0
VERTEX
  5
378
  8
Layer_0
  10
722.83194
  20
363.72583
  0
VERTEX
  5
379
  8
Layer_0
  10
706.92206
  20
379.63574
  0
VERTEX
  5
37a
  8
Layer_0
  10
703.74005
  20
379.98932
  0
VERTEX
  5
37b
  8
Layer_0
  10
691.81067
  20
368.05994
  0
VERTEX
  5
37c
  8
Layer_0
  10
691.81067
  20
351.18927
  0
VERTEX
  5
37d
  8
Layer_0
  10
693.81067
  20
349.18927
  0
VERTEX
  5
37e
  8
Layer_0
  10
716.8107
  20
349.18927
  0
VERTEX
  5
37f
  8
Layer_0
  10
716.8107
  20
345.50922
  0
VERTEX
  5
380
  8
Layer_0
  10
694.31067
  20
345.50922
  0
VERTEX
  5
381
  8
Layer_0
  10
691.81067
  20
343.50922
  0
VERTEX
  5
382
  8
Layer_0
  10
691.81067
  20
326.63855
  0
VERTEX
  5
383
  8
Layer_0
  10
703.74005
  20
314.70917
  0
VERTEX
  5
384
  8
Layer_0
  10
706.56848
  20
314.70917
  0
VERTEX
  5
385
  8
Layer_0
  10
722.83194
  20
330.97266
  0
VERTEX
  5
386
  8
Layer_0
  10
725.43411
  20
328.37048
  0
VERTEX
  5
387
  8
Layer_0
  10
709.5242
  20
312.46057
  0
VERTEX
  5
388
  8
Layer_0
  10
709.17065
  20
309.27863
  0
VERTEX
  5
389
  8
Layer_0
  10
721.10004
  20
297.34924
  0
VERTEX
  5
38a
  8
Layer_0
  10
737.9707
  20
297.34924
  0
VERTEX
  5
38b
  8
Layer_0
  10
739.9707
  20
299.34924
  0
VERTEX
  5
38c
  8
Layer_0
  10
739.9707
  20
322.34924
  0
VERTEX
  5
38d
  8
Layer_0
  10
743.6507
  20
322.34924
  0
VERTEX
  5
38e
  8
Layer_0
  10
743.6507
  20
299.84924
  0
VERTEX
  5
38f
  8
Layer_0
  10
745.6507
  20
297.34924
  0
VERTEX
  5
390
  8
Layer_0
  10
762.52136
  20
297.34924
  0
VERTEX
  5
391
  8
Layer_0
  10
774.45074
  20
309.27863
  0
VERTEX
  5
392
  8
Layer_0
  10
774.45074
  20
312.10706
  0
VERTEX
  5
393
  8
Layer_0
  10
758.18729
  20
328.37048
  0
VERTEX
  5
394
  8
Layer_0
  10
760.78946
  20
330.97266
  0
VERTEX
  5
395
  8
Layer_0
  10
776.69934
  20
315.06274
  0
VERTEX
  5
396
  8
Layer_0
  10
779.88132
  20
314.70917
  0
VERTEX
  5
397
  8
Layer_0
  10
791.8107
  20
326.63855
  0
VERTEX
  5
398
  8
Layer_0
  10
791.8107
  20
343.50922
  0
VERTEX
  5
399
  8
Layer_0
  10
789.8107
  20
345.50922
  0
VERTEX
  5
39a
  8
Layer_0
  10
766.8107
  20
345.50922
  0
VERTEX
  5
39b
  8
Layer_0
  10
766.8107
  20
349.18927
  0
VERTEX
  5
39c
  8
Layer_0
  10
789.3107
  20
349.18927
  0
VERTEX
  5
39d
  8
Layer_0
  10
791.8107
  20
351.18927
  0
VERTEX
  5
39e
  8
Layer_0
  10
791.8107
  20
368.05994
  0
VERTEX
  5
39f
  8
Layer_0
  10
779.88132
  20
379.98932
  0
VERTEX
  5
3a0
  8
Layer_0
  10
777.05292
  20
379.98932
  0
VERTEX
  5
3a1
  8
Layer_0
  10
760.78946
  20
363.72583
  0
VERTEX
  5
3a2
  8
Layer_0
  10
758.18729
  20
366.328
  0
SEQEND
  0
POLYLINE
  5
3a4
  8
Layer_0
  62
0
  66
1
  10
0
  20
0
  30
0
  0
VERTEX
  5
3a4
  8
Layer_0
  10
770.67822
  20
282.34924
  0
VERTEX
  5
3a5
  8
Layer_0
  10
745.6507
  20
282.34924
  0
VERTEX
  5
3a6
  8
Layer_0
  10
743.6507
  20
280.34924
  0
VERTEX
  5
3a7
  8
Layer_0
  10
743.6507
  20
257.34924
  0
VERTEX
  5
3a8
  8
Layer_0
  10
739.9707
  20
257.34924
  0
VERTEX
  5
3a9
  8
Layer_0
  10
739.9707
  20
279.84924
  0
VERTEX
  5
3aa
  8
Layer_0
  10
737.9707
  20
282.34924
  0
VERTEX
  5
3ab
  8
Layer_0
  10
712.94318
  20
282.34924
  0
VERTEX
  5
3ac
  8
Layer_0
  10
700.42944
  20
260.6748
  0
VERTEX
  5
3ad
  8
Layer_0
  10
701.1615
  20
257.94275
  0
VERTEX
  5
3ae
  8
Layer_0
  10
721.08008
  20
246.44275
  0
VERTEX
  5
3af
  8
Layer_0
  10
719.24005
  20
243.25574
  0
VERTEX
  5
3b0
  8
Layer_0
  10
699.75452
  20
254.50574
  0
VERTEX
  5
3b1
  8
Layer_0
  10
696.58942
  20
254.02368
  0
VERTEX
  5
3b2
  8
Layer_0
  10
684.07568
  20
232.34924
  0
VERTEX
  5
3b3
  8
Layer_0
  10
696.58942
  20
210.6748
  0
VERTEX
  5
3b4
  8
Layer_0
  10
699.32147
  20
209.94275
  0
VERTEX
  5
3b5
  8
Layer_0
  10
719.24005
  20
221.44275
  0
VERTEX
  5
3b6
  8
Layer_0
  10
721.08008
  20
218.25574
  0
VERTEX
  5
3b7
  8
Layer_0
  10
701.59448
  20
207.00574
  0
VERTEX
  5
3b8
  8
Layer_0
  10
700.42944
  20
204.02368
  0
VERTEX
  5
3b9
  8
Layer_0
  10
712.94318
  20
182.34924
  0
VERTEX
  5
3ba
  8
Layer_0
  10
737.9707
  20
182.34924
  0
VERTEX
  5
3bb
  8
Layer_0
  10
739.9707
  20
184.34924
  0
VERTEX
  5
3bc
  8
Layer_0
  10
739.9707
  20
207.34924
  0
VERTEX
  5
3bd
  8
Layer_0
  10
743.6507
  20
207.34924
  0
VERTEX
  5
3be
  8
Layer_0
  10
743.6507
  20
184.84924
  0
VERTEX
  5
3bf
  8
Layer_0
  10
745.6507
  20
182.34924
  0
VERTEX
  5
3c0
  8
Layer_0
  10
770.67822
  20
182.34924
  0
VERTEX
  5
3c1
  8
Layer_0
  10
783.19196
  20
204.02368
  0
VERTEX
  5
3c2
  8
Layer_0
  10
782.45993
  20
206.75574
  0
VERTEX
  5
3c3
  8
Layer_0
  10
762.54132
  20
218.25574
  0
VERTEX
  5
3c4
  8
Layer_0
  10
764.38135
  20
221.44275
  0
VERTEX
  5
3c5
  8
Layer_0
  10
783.86691
  20
210.19275
  0
VERTEX
  5
3c6
  8
Layer_0
  10
787.03198
  20
210.6748
  0
VERTEX
  5
3c7
  8
Layer_0
  10
799.54572
  20
232.34924
  0
VERTEX
  5
3c8
  8
Layer_0
  10
787.03198
  20
254.02368
  0
VERTEX
  5
3c9
  8
Layer_0
  10
784.29993
  20
254.75574
  0
VERTEX
  5
3ca
  8
Layer_0
  10
764.38135
  20
243.25574
  0
VERTEX
  5
3cb
  8
Layer_0
  10
762.54132
  20
246.44275
  0
VERTEX
  5
3cc
  8
Layer_0
  10
782.02692
  20
257.69275
  0
VERTEX
  5
3cd
  8
Layer_0
  10
783.19196
  20
260.6748
  0
VERTEX
  5
3ce
  8
Layer_0
  10
770.67822
  20
282.34924
  0
SEQEND
  0
POLYLINE
  5
3d0
  8
Layer_0
  62
0
  66
1
  10
0
  20
0
  30
0
  0
VERTEX
  5
3d0
  8
Layer_0
  10
770.67822
  20
282.34924
  0
VERTEX
  5
3d1
  8
Layer_0
  10
745.6507
  20
282.34924
  0
VERTEX
  5
3d2
  8
Layer_0
  10
743.6507
  20
280.34924
  0
VERTEX
  5
3d3
  8
Layer_0
  10
743.6507
  20
257.34924
  0
VERTEX
  5
3d4
  8
Layer_0
  10
739.9707
  20
257.34924
  0
VERTEX
  5
3d5
  8
Layer_0
  10
739.9707
  20
279.84924
  0
VERTEX
  5
3d6
  8
Layer_0
  10
737.9707
  20
282.34924
  0
VERTEX
  5
3d7
  8
Layer_0
  10
712.94318
  20
282.34924
  0
VERTEX
  5
3d8
  8
Layer_0
  10
700.42944
  20
260.6748
  0
VERTEX
  5
3d9
  8
Layer_0
  10
701.1615
  20
257.94275
  0
VERTEX
  5
3da
  8
Layer_0
  10
721.08008
  20
246.44275
  0
VERTEX
  5
3db
  8
Layer_0
  10
719.24005
  20
243.25574
  0
VERTEX
  5
3dc
  8
Layer_0
  10
699.75452
  20
254.50574
  0
VERTEX
  5
3dd
  8
Layer_0
  10
696.58942
  20
254.02368
  0
VERTEX
  5
3de
  8
Layer_0
  10
684.07568
  20
232.34924
  0
VERTEX
  5
3df
  8
Layer_0
  10
696.58942
  20
210.6748
  0
VERTEX
  5
3e0
  8
Layer_0
  10
699.32147
  20
209.94275
  0
VERTEX
  5
3e1
  8
Layer_0
  10
719.24005
  20
221.44275
  0
VERTEX
  5
3e2
  8
Layer_0
  10
721.08008
  20
218.25574
  0
VERTEX
  5
3e3
  8
Layer_0
  10
701.59448
  20
207.00574
  0
VERTEX
  5
3e4
  8
Layer_0
  10
700.42944
  20
204.02368
  0
VERTEX
  5
3e5
  8
Layer_0
  10
712.94318
  20
182.34924
  0
VERTEX
  5
3e6
  8
Layer_0
  10
737.9707
  20
182.34924
  0
VERTEX
  5
3e7
  8
Layer_0
  10
739.9707
  20
184.34924
  0
VERTEX
  5
3e8
  8
Layer_0
  10
739.9707
  20
207.34924
  0
VERTEX
  5
3e9
  8
Layer_0
  10
743.6507
  20
207.34924
  0
VERTEX
  5
3ea
  8
Layer_0
  10
743.6507
  20
184.84924
  0
VERTEX
  5
3eb
  8
Layer_0
  10
745.6507
  20
182.34924
  0
VERTEX
  5
3ec
  8
Layer_0
  10
770.67822
  20
182.34924
  0
VERTEX
  5
3ed
  8
Layer_0
  10
783.19196
  20
204.02368
  0
VERTEX
  5
3ee
  8
Layer_0
  10
782.45993
  20
206.75574
  0
VERTEX
  5
3ef
  8
Layer_0
  10
762.54132
  20
218.25574
  0
VERTEX
  5
3f0
  8
Layer_0
  10
764.38135
  20
221.44275
  0
VERTEX
  5
3f1
  8
Layer_0
  10
783.86691
  20
210.19275
  0
VERTEX
  5
3f2
  8
Layer_0
  10
787.03198
  20
210.6748
  0
VERTEX
  5
3f3
  8
Layer_0
  10
799.54572
  20
232.34924
  0
VERTEX
  5
3f4
  8
Layer_0
  10
787.03198
  20
254.02368
  0
VERTEX
  5
3f5
  8
Layer_0
  10
784.29993
  20
254.75574
  0
VERTEX
  5
3f6
  8
Layer_0
  10
764.38135
  20
243.25574
  0
VERTEX
  5
3f7
  8
Layer_0
  10
762.54132
  20
246.44275
  0
VERTEX
  5
3f8
  8
Layer_0
  10
782.02692
  20
257.69275
  0
VERTEX
  5
3f9
  8
Layer_0
  10
783.19196
  20
260.6748
  0
VERTEX
  5
3fa
  8
Layer_0
  10
770.67822
  20
282.34924
  0
SEQEND
  0
POLYLINE
  5
3fc
  8
Layer_0
  62
0
  66
1
  10
0
  20
0
  30
0
  0
VERTEX
  5
3fc
  8
Layer_0
  10
904.85052
  20
508.57117
  0
VERTEX
  5
3fd
  8
Layer_0
  10
879.823
  20
508.57117
  0
VERTEX
  5
3fe
  8
Layer_0
  10
877.823
  20
506.57117
  0
VERTEX
  5
3ff
  8
Layer_0
  10
877.823
  20
483.57117
  0
VERTEX
  5
400
  8
Layer_0
  10
874.14301
  20
483.57117
  0
VERTEX
  5
401
  8
Layer_0
  10
874.14301
  20
506.07117
  0
VERTEX
  5
402
  8
Layer_0
  10
872.14301
  20
508.57117
  0
VERTEX
  5
403
  8
Layer_0
  10
847.11548
  20
508.57117
  0
VERTEX
  5
404
  8
Layer_0
  10
834.60175
  20
486.8967
  0
VERTEX
  5
405
  8
Layer_0
  10
835.33377
  20
484.16464
  0
VERTEX
  5
406
  8
Layer_0
  10
855.25238
  20
472.66464
  0
VERTEX
  5
407
  8
Layer_0
  10
853.41235
  20
469.47769
  0
VERTEX
  5
408
  8
Layer_0
  10
833.92679
  20
480.72769
  0
VERTEX
  5
409
  8
Layer_0
  10
830.76172
  20
480.24564
  0
VERTEX
  5
40a
  8
Layer_0
  10
818.24799
  20
458.57117
  0
VERTEX
  5
40b
  8
Layer_0
  10
830.76172
  20
436.8967
  0
VERTEX
  5
40c
  8
Layer_0
  10
833.49377
  20
436.16464
  0
VERTEX
  5
40d
  8
Layer_0
  10
853.41235
  20
447.66464
  0
VERTEX
  5
40e
  8
Layer_0
  10
855.25238
  20
444.47769
  0
VERTEX
  5
40f
  8
Layer_0
  10
835.76678
  20
433.22769
  0
VERTEX
  5
410
  8
Layer_0
  10
834.60175
  20
430.24564
  0
VERTEX
  5
411
  8
Layer_0
  10
847.11548
  20
408.57117
  0
VERTEX
  5
412
  8
Layer_0
  10
872.14301
  20
408.57117
  0
VERTEX
  5
413
  8
Layer_0
  10
874.14301
  20
410.57117
  0
VERTEX
  5
414
  8
Layer_0
  10
874.14301
  20
433.57117
  0
VERTEX
  5
415
  8
Layer_0
  10
877.823
  20
433.57117
  0
VERTEX
  5
416
  8
Layer_0
  10
877.823
  20
411.07117
  0
VERTEX
  5
417
  8
Layer_0
  10
879.823
  20
408.57117
  0
VERTEX
  5
418
  8
Layer_0
  10
904.85052
  20
408.57117
  0
VERTEX
  5
419
  8
Layer_0
  10
917.36426
  20
430.24564
  0
VERTEX
  5
41a
  8
Layer_0
  10
916.63223
  20
432.97769
  0
VERTEX
  5
41b
  8
Layer_0
  10
896.71362
  20
444.47769
  0
VERTEX
  5
41c
  8
Layer_0
  10
898.55365
  20
447.66464
  0
VERTEX
  5
41d
  8
Layer_0
  10
918.03922
  20
436.41464
  0
VERTEX
  5
41e
  8
Layer_0
  10
921.20428
  20
436.8967
  0
VERTEX
  5
41f
  8
Layer_0
  10
933.71802
  20
458.57117
  0
VERTEX
  5
420
  8
Layer_0
  10
921.20428
  20
480.24564
  0
VERTEX
  5
421
  8
Layer_0
  10
918.47223
  20
480.97769
  0
VERTEX
  5
422
  8
Layer_0
  10
898.55365
  20
469.47769
  0
VERTEX
  5
423
  8
Layer_0
  10
896.71362
  20
472.66464
  0
VERTEX
  5
424
  8
Layer_0
  10
916.19922
  20
483.91464
  0
VERTEX
  5
425
  8
Layer_0
  10
917.36426
  20
486.8967
  0
VERTEX
  5
426
  8
Layer_0
  10
904.85052
  20
508.57117
  0
SEQEND
  0
POLYLINE
  5
428
  8
Layer_0
  62
0
  66
1
  10
0
  20
0
  30
0
  0
VERTEX
  5
428
  8
Layer_0
  10
904.85052
  20
508.57117
  0
VERTEX
  5
429
  8
Layer_0
  10
879.823
  20
508.57117
  0
VERTEX
  5
42a
  8
Layer_0
  10
877.823
  20
506.57117
  0
VERTEX
  5
42b
  8
Layer_0
  10
877.823
  20
483.57117
  0
VERTEX
  5
42c
  8
Layer_0
  10
874.14301
  20
483.57117
  0
VERTEX
  5
42d
  8
Layer_0
  10
874.14301
  20
506.07117
  0
VERTEX
  5
42e
  8
Layer_0
  10
872.14301
  20
508.57117
  0
VERTEX
  5
42f
  8
Layer_0
  10
847.11548
  20
508.57117
  0
VERTEX
  5
430
  8
Layer_0
  10
834.60175
  20
486.8967
  0
VERTEX
  5
431
  8
Layer_0
  10
835.33377
  20
484.16464
  0
VERTEX
  5
432
  8
Layer_0
  10
855.25238
  20
472.66464
  0
VERTEX
  5
433
  8
Layer_0
  10
853.41235
  20
469.47769
  0
VERTEX
  5
434
  8
Layer_0
  10
833.92679
  20
480.72769
  0
VERTEX
  5
435
  8
Layer_0
  10
830.76172
  20
480.24564
  0
VERTEX
  5
436
  8
Layer_0
  10
818.24799
  20
458.57117
  0
VERTEX
  5
437
  8
Layer_0
  10
830.76172
  20
436.8967
  0
VERTEX
  5
438
  8
Layer_0
  10
833.49377
  20
436.16464
  0
VERTEX
  5
439
  8
Layer_0
  10
853.41235
  20
447.66464
  0
VERTEX
  5
43a
  8
Layer_0
  10
855.25238
  20
444.47769
  0
VERTEX
  5
43b
  8
Layer_0
  10
835.76678
  20
433.22769
  0
VERTEX
  5
43c
  8
Layer_0
  10
834.60175
  20
430.24564
  0
VERTEX
  5
43d
  8
Layer_0
  10
847.11548
  20
408.57117
  0
VERTEX
  5
43e
  8
Layer_0
  10
872.14301
  20
408.57117
  0
VERTEX
  5
43f
  8
Layer_0
  10
874.14301
  20
410.57117
  0
VERTEX
  5
440
  8
Layer_0
  10
874.14301
  20
433.57117
  0
VERTEX
  5
441
  8
Layer_0
  10
877.823
  20
433.57117
  0
VERTEX
  5
442
  8
Layer_0
  10
877.823
  20
411.07117
  0
VERTEX
  5
443
  8
Layer_0
  10
879.823
  20
408.57117
  0
VERTEX
  5
444
  8
Layer_0
  10
904.85052
  20
408.57117
  0
VERTEX
  5
445
  8
Layer_0
  10
917.36426
  20
430.24564
  0
VERTEX
  5
446
  8
Layer_0
  10
916.63223
  20
432.97769
  0
VERTEX
  5
447
  8
Layer_0
  10
896.71362
  20
444.47769
  0
VERTEX
  5
448
  8
Layer_0
  10
898.55365
  20
447.66464
  0
VERTEX
  5
449
  8
Layer_0
  10
918.03922
  20
436.41464
  0
VERTEX
  5
44a
  8
Layer_0
  10
921.20428
  20
436.8967
  0
VERTEX
  5
44b
  8
Layer_0
  10
933.71802
  20
458.57117
  0
VERTEX
  5
44c
  8
Layer_0
  10
921.20428
  20
480.24564
  0
VERTEX
  5
44d
  8
Layer_0
  10
918.47223
  20
480.97769
  0
VERTEX
  5
44e
  8
Layer_0
  10
898.55365
  20
469.47769
  0
VERTEX
  5
44f
  8
Layer_0
  10
896.71362
  20
472.66464
  0
VERTEX
  5
450
  8
Layer_0
  10
916.19922
  20
483.91464
  0
VERTEX
  5
451
  8
Layer_0
  10
917.36426
  20
486.8967
  0
VERTEX
  5
452
  8
Layer_0
  10
904.85052
  20
508.57117
  0
SEQEND
  0
POLYLINE
  5
454
  8
Layer_0
  62
0
  66
1
  10
0
  20
0
  30
0
  0
VERTEX
  5
454
  8
Layer_0
  10
895.35959
  20
360.54993
  0
VERTEX
  5
455
  8
Layer_0
  10
911.2695
  20
376.45984
  0
VERTEX
  5
456
  8
Layer_0
  10
911.62305
  20
379.64178
  0
VERTEX
  5
457
  8
Layer_0
  10
899.69366
  20
391.57117
  0
VERTEX
  5
458
  8
Layer_0
  10
882.823
  20
391.57117
  0
VERTEX
  5
459
  8
Layer_0
  10
880.823
  20
389.57117
  0
VERTEX
  5
45a
  8
Layer_0
  10
880.823
  20
366.57117
  0
VERTEX
  5
45b
  8
Layer_0
  10
877.14301
  20
366.57117
  0
VERTEX
  5
45c
  8
Layer_0
  10
877.14301
  20
389.07117
  0
VERTEX
  5
45d
  8
Layer_0
  10
875.14301
  20
391.57117
  0
VERTEX
  5
45e
  8
Layer_0
  10
858.27234
  20
391.57117
  0
VERTEX
  5
45f
  8
Layer_0
  10
846.34296
  20
379.64178
  0
VERTEX
  5
460
  8
Layer_0
  10
846.34296
  20
376.81335
  0
VERTEX
  5
461
  8
Layer_0
  10
862.60641
  20
360.54993
  0
VERTEX
  5
462
  8
Layer_0
  10
860.00424
  20
357.94775
  0
VERTEX
  5
463
  8
Layer_0
  10
844.09436
  20
373.85767
  0
VERTEX
  5
464
  8
Layer_0
  10
840.91238
  20
374.21124
  0
VERTEX
  5
465
  8
Layer_0
  10
828.983
  20
362.28186
  0
VERTEX
  5
466
  8
Layer_0
  10
828.983
  20
345.41119
  0
VERTEX
  5
467
  8
Layer_0
  10
830.983
  20
343.41119
  0
VERTEX
  5
468
  8
Layer_0
  10
853.983
  20
343.41119
  0
VERTEX
  5
469
  8
Layer_0
  10
853.983
  20
339.73114
  0
VERTEX
  5
46a
  8
Layer_0
  10
831.483
  20
339.73114
  0
VERTEX
  5
46b
  8
Layer_0
  10
828.983
  20
337.73114
  0
VERTEX
  5
46c
  8
Layer_0
  10
828.983
  20
320.86047
  0
VERTEX
  5
46d
  8
Layer_0
  10
840.91238
  20
308.93109
  0
VERTEX
  5
46e
  8
Layer_0
  10
843.74078
  20
308.93109
  0
VERTEX
  5
46f
  8
Layer_0
  10
860.00424
  20
325.19458
  0
VERTEX
  5
470
  8
Layer_0
  10
862.60641
  20
322.59241
  0
VERTEX
  5
471
  8
Layer_0
  10
846.6965
  20
306.6825
  0
VERTEX
  5
472
  8
Layer_0
  10
846.34296
  20
303.50055
  0
VERTEX
  5
473
  8
Layer_0
  10
858.27234
  20
291.57117
  0
VERTEX
  5
474
  8
Layer_0
  10
875.14301
  20
291.57117
  0
VERTEX
  5
475
  8
Layer_0
  10
877.14301
  20
293.57117
  0
VERTEX
  5
476
  8
Layer_0
  10
877.14301
  20
316.57117
  0
VERTEX
  5
477
  8
Layer_0
  10
880.823
  20
316.57117
  0
VERTEX
  5
478
  8
Layer_0
  10
880.823
  20
294.07117
  0
VERTEX
  5
479
  8
Layer_0
  10
882.823
  20
291.57117
  0
VERTEX
  5
47a
  8
Layer_0
  10
899.69366
  20
291.57117
  0
VERTEX
  5
47b
  8
Layer_0
  10
911.62305
  20
303.50055
  0
VERTEX
  5
47c
  8
Layer_0
  10
911.62305
  20
306.32898
  0
VERTEX
  5
47d
  8
Layer_0
  10
895.35959
  20
322.59241
  0
VERTEX
  5
47e
  8
Layer_0
  10
897.96176
  20
325.19458
  0
VERTEX
  5
47f
  8
Layer_0
  10
913.87164
  20
309.28467
  0
VERTEX
  5
480
  8
Layer_0
  10
917.05362
  20
308.93109
  0
VERTEX
  5
481
  8
Layer_0
  10
928.983
  20
320.86047
  0
VERTEX
  5
482
  8
Layer_0
  10
928.983
  20
337.73114
  0
VERTEX
  5
483
  8
Layer_0
  10
926.983
  20
339.73114
  0
VERTEX
  5
484
  8
Layer_0
  10
903.983
  20
339.73114
  0
VERTEX
  5
485
  8
Layer_0
  10
903.983
  20
343.41119
  0
VERTEX
  5
486
  8
Layer_0
  10
926.483
  20
343.41119
  0
VERTEX
  5
487
  8
Layer_0
  10
928.983
  20
345.41119
  0
VERTEX
  5
488
  8
Layer_0
  10
928.983
  20
362.28186
  0
VERTEX
  5
489
  8
Layer_0
  10
917.05362
  20
374.21124
  0
VERTEX
  5
48a
  8
Layer_0
  10
914.22522
  20
374.21124
  0
VERTEX
  5
48b
  8
Layer_0
  10
897.96176
  20
357.94775
  0
VERTEX
  5
48c
  8
Layer_0
  10
895.35959
  20
360.54993
  0
SEQEND
  0
POLYLINE
  5
48e
  8
Layer_0
  62
0
  66
1
  10
0
  20
0
  30
0
  0
VERTEX
  5
48e
  8
Layer_0
  10
895.35959
  20
360.54993
  0
VERTEX
  5
48f
  8
Layer_0
  10
911.2695
  20
376.45984
  0
VERTEX
  5
490
  8
Layer_0
  10
911.62305
  20
379.64178
  0
VERTEX
  5
491
  8
Layer_0
  10
899.69366
  20
391.57117
  0
VERTEX
  5
492
  8
Layer_0
  10
882.823
  20
391.57117
  0
VERTEX
  5
493
  8
Layer_0
  10
880.823
  20
389.57117
  0
VERTEX
  5
494
  8
Layer_0
  10
880.823
  20
366.57117
  0
VERTEX
  5
495
  8
Layer_0
  10
877.14301
  20
366.57117
  0
VERTEX
  5
496
  8
Layer_0
  10
877.14301
  20
389.07117
  0
VERTEX
  5
497
  8
Layer_0
  10
875.14301
  20
391.57117
  0
VERTEX
  5
498
  8
Layer_0
  10
858.27234
  20
391.57117
  0
VERTEX
  5
499
  8
Layer_0
  10
846.34296
  20
379.64178
  0
VERTEX
  5
49a
  8
Layer_0
  10
846.34296
  20
376.81335
  0
VERTEX
  5
49b
  8
Layer_0
  10
862.60641
  20
360.54993
  0
VERTEX
  5
49c
  8
Layer_0
  10
860.00424
  20
357.94775
  0
VERTEX
  5
49d
  8
Layer_0
  10
844.09436
  20
373.85767
  0
VERTEX
  5
49e
  8
Layer_0
  10
840.91238
  20
374.21124
  0
VERTEX
  5
49f
  8
Layer_0
  10
828.983
  20
362.28186
  0
VERTEX
  5
4a0
  8
Layer_0
  10
828.983
  20
345.41119
  0
VERTEX
  5
4a1
  8
Layer_0
  10
830.983
  20
343.41119
  0
VERTEX
  5
4a2
  8
Layer_0
  10
853.983
  20
343.41119
  0
VERTEX
  5
4a3
  8
Layer_0
  10
853.983
  20
339.73114
  0
VERTEX
  5
4a4
  8
Layer_0
  10
831.483
  20
339.73114
  0
VERTEX
  5
4a5
  8
Layer_0
  10
828.983
  20
337.73114
  0
VERTEX
  5
4a6
  8
Layer_0
  10
828.983
  20
320.86047
  0
VERTEX
  5
4a7
  8
Layer_0
  10
840.91238
  20
308.93109
  0
VERTEX
  5
4a8
  8
Layer_0
  10
843.74078
  20
308.93109
  0
VERTEX
  5
4a9
  8
Layer_0
  10
860.00424
  20
325.19458
  0
VERTEX
  5
4aa
  8
Layer_0
  10
862.60641
  20
322.59241
  0
VERTEX
  5
4ab
  8
Layer_0
  10
846.6965
  20
306.6825
  0
VERTEX
  5
4ac
  8
Layer_0
  10
846.34296
  20
303.50055
  0
VERTEX
  5
4ad
  8
Layer_0
  10
858.27234
  20
291.57117
  0
VERTEX
  5
4ae
  8
Layer_0
  10
875.14301
  20
291.57117
  0
VERTEX
  5
4af
  8
Layer_0
  10
877.14301
  20
293.57117
  0
VERTEX
  5
4b0
  8
Layer_0
  10
877.14301
  20
316.57117
  0
VERTEX
  5
4b1
  8
Layer_0
  10
880.823
  20
316.57117
  0
VERTEX
  5
4b2
  8
Layer_0
  10
880.823
  20
294.07117
  0
VERTEX
  5
4b3
  8
Layer_0
  10
882.823
  20
291.57117
  0
VERTEX
  5
4b4
  8
Layer_0
  10
899.69366
  20
291.57117
  0
VERTEX
  5
4b5
  8
Layer_0
  10
911.62305
  20
303.50055
  0
VERTEX
  5
4b6
  8
Layer_0
  10
911.62305
  20
306.32898
  0
VERTEX
  5
4b7
  8
Layer_0
  10
895.35959
  20
322.59241
  0
VERTEX
  5
4b8
  8
Layer_0
  10
897.96176
  20
325.19458
  0
VERTEX
  5
4b9
  8
Layer_0
  10
913.87164
  20
309.28467
  0
VERTEX
  5
4ba
  8
Layer_0
  10
917.05362
  20
308.93109
  0
VERTEX
  5
4bb
  8
Layer_0
  10
928.983
  20
320.86047
  0
VERTEX
  5
4bc
  8
Layer_0
  10
928.983
  20
337.73114
  0
VERTEX
  5
4bd
  8
Layer_0
  10
926.983
  20
339.73114
  0
VERTEX
  5
4be
  8
Layer_0
  10
903.983
  20
339.73114
  0
VERTEX
  5
4bf
  8
Layer_0
  10
903.983
  20
343.41119
  0
VERTEX
  5
4c0
  8
Layer_0
  10
926.483
  20
343.41119
  0
VERTEX
  5
4c1
  8
Layer_0
  10
928.983
  20
345.41119
  0
VERTEX
  5
4c2
  8
Layer_0
  10
928.983
  20
362.28186
  0
VERTEX
  5
4c3
  8
Layer_0
  10
917.05362
  20
374.21124
  0
VERTEX
  5
4c4
  8
Layer_0
  10
914.22522
  20
374.21124
  0
VERTEX
  5
4c5
  8
Layer_0
  10
897.96176
  20
357.94775
  0
VERTEX
  5
4c6
  8
Layer_0
  10
895.35959
  20
360.54993
  0
SEQEND
  0
POLYLINE
  5
4c8
  8
Layer_0
  62
0
  66
1
  10
0
  20
0
  30
0
  0
VERTEX
  5
4c8
  8
Layer_0
  10
907.85052
  20
276.57117
  0
VERTEX
  5
4c9
  8
Layer_0
  10
882.823
  20
276.57117
  0
VERTEX
  5
4ca
  8
Layer_0
  10
880.823
  20
274.57117
  0
VERTEX
  5
4cb
  8
Layer_0
  10
880.823
  20
251.57117
  0
VERTEX
  5
4cc
  8
Layer_0
  10
877.14301
  20
251.57117
  0
VERTEX
  5
4cd
  8
Layer_0
  10
877.14301
  20
274.07117
  0
VERTEX
  5
4ce
  8
Layer_0
  10
875.14301
  20
276.57117
  0
VERTEX
  5
4cf
  8
Layer_0
  10
850.11548
  20
276.57117
  0
VERTEX
  5
4d0
  8
Layer_0
  10
837.60175
  20
254.89673
  0
VERTEX
  5
4d1
  8
Layer_0
  10
838.33377
  20
252.16467
  0
VERTEX
  5
4d2
  8
Layer_0
  10
858.25238
  20
240.66467
  0
VERTEX
  5
4d3
  8
Layer_0
  10
856.41235
  20
237.47766
  0
VERTEX
  5
4d4
  8
Layer_0
  10
836.92679
  20
248.72766
  0
VERTEX
  5
4d5
  8
Layer_0
  10
833.76172
  20
248.24561
  0
VERTEX
  5
4d6
  8
Layer_0
  10
821.24799
  20
226.57117
  0
VERTEX
  5
4d7
  8
Layer_0
  10
833.76172
  20
204.89673
  0
VERTEX
  5
4d8
  8
Layer_0
  10
836.49377
  20
204.16467
  0
VERTEX
  5
4d9
  8
Layer_0
  10
856.41235
  20
215.66467
  0
VERTEX
  5
4da
  8
Layer_0
  10
858.25238
  20
212.47766
  0
VERTEX
  5
4db
  8
Layer_0
  10
838.76678
  20
201.22766
  0
VERTEX
  5
4dc
  8
Layer_0
  10
837.60175
  20
198.24561
  0
VERTEX
  5
4dd
  8
Layer_0
  10
850.11548
  20
176.57117
  0
VERTEX
  5
4de
  8
Layer_0
  10
875.14301
  20
176.57117
  0
VERTEX
  5
4df
  8
Layer_0
  10
877.14301
  20
178.57117
  0
VERTEX
  5
4e0
  8
Layer_0
  10
877.14301
  20
201.57117
  0
VERTEX
  5
4e1
  8
Layer_0
  10
880.823
  20
201.57117
  0
VERTEX
  5
4e2
  8
Layer_0
  10
880.823
  20
179.07117
  0
VERTEX
  5
4e3
  8
Layer_0
  10
882.823
  20
176.57117
  0
VERTEX
  5
4e4
  8
Layer_0
  10
907.85052
  20
176.57117
  0
VERTEX
  5
4e5
  8
Layer_0
  10
920.36426
  20
198.24561
  0
VERTEX
  5
4e6
  8
Layer_0
  10
919.63223
  20
200.97766
  0
VERTEX
  5
4e7
  8
Layer_0
  10
899.71362
  20
212.47766
  0
VERTEX
  5
4e8
  8
Layer_0
  10
901.55365
  20
215.66467
  0
VERTEX
  5
4e9
  8
Layer_0
  10
921.03922
  20
204.41467
  0
VERTEX
  5
4ea
  8
Layer_0
  10
924.20428
  20
204.89673
  0
VERTEX
  5
4eb
  8
Layer_0
  10
936.71802
  20
226.57117
  0
VERTEX
  5
4ec
  8
Layer_0
  10
924.20428
  20
248.24561
  0
VERTEX
  5
4ed
  8
Layer_0
  10
921.47223
  20
248.97766
  0
VERTEX
  5
4ee
  8
Layer_0
  10
901.55365
  20
237.47766
  0
VERTEX
  5
4ef
  8
Layer_0
  10
899.71362
  20
240.66467
  0
VERTEX
  5
4f0
  8
Layer_0
  10
919.19922
  20
251.91467
  0
VERTEX
  5
4f1
  8
Layer_0
  10
920.36426
  20
254.89673
  0
VERTEX
  5
4f2
  8
Layer_0
  10
907.85052
  20
276.57117
  0
SEQEND
  0
POLYLINE
  5
4f4
  8
Layer_0
  62
0
  66
1
  10
0
  20
0
  30
0
  0
VERTEX
  5
4f4
  8
Layer_0
  10
907.85052
  20
276.57117
  0
VERTEX
  5
4f5
  8
Layer_0
  10
882.823
  20
276.57117
  0
VERTEX
  5
4f6
  8
Layer_0
  10
880.823
  20
274.57117
  0
VERTEX
  5
4f7
  8
Layer_0
  10
880.823
  20
251.57117
  0
VERTEX
  5
4f8
  8
Layer_0
  10
877.14301
  20
251.57117
  0
VERTEX
  5
4f9
  8
Layer_0
  10
877.14301
  20
274.07117
  0
VERTEX
  5
4fa
  8
Layer_0
  10
875.14301
  20
276.57117
  0
VERTEX
  5
4fb
  8
Layer_0
  10
850.11548
  20
276.57117
  0
VERTEX
  5
4fc
  8
Layer_0
  10
837.60175
  20
254.89673
  0
VERTEX
  5
4fd
  8
Layer_0
  10
838.33377
  20
252.16467
  0
VERTEX
  5
4fe
  8
Layer_0
  10
858.25238
  20
240.66467
  0
VERTEX
  5
4ff
  8
Layer_0
  10
856.41235
  20
237.47766
  0
VERTEX
  5
500
  8
Layer_0
  10
836.92679
  20
248.72766
  0
VERTEX
  5
501
  8
Layer_0
  10
833.76172
  20
248.24561
  0
VERTEX
  5
502
  8
Layer_0
  10
821.24799
  20
226.57117
  0
VERTEX
  5
503
  8
Layer_0
  10
833.76172
  20
204.89673
  0
VERTEX
  5
504
  8
Layer_0
  10
836.49377
  20
204.16467
  0
VERTEX
  5
505
  8
Layer_0
  10
856.41235
  20
215.66467
  0
VERTEX
  5
506
  8
Layer_0
  10
858.25238
  20
212.47766
  0
VERTEX
  5
507
  8
Layer_0
  10
838.76678
  20
201.22766
  0
VERTEX
  5
508
  8
Layer_0
  10
837.60175
  20
198.24561
  0
VERTEX
  5
509
  8
Layer_0
  10
850.11548
  20
176.57117
  0
VERTEX
  5
50a
  8
Layer_0
  10
875.14301
  20
176.57117
  0
VERTEX
  5
50b
  8
Layer_0
  10
877.14301
  20
178.57117
  0
VERTEX
  5
50c
  8
Layer_0
  10
877.14301
  20
201.57117
  0
VERTEX
  5
50d
  8
Layer_0
  10
880.823
  20
201.57117
  0
VERTEX
  5
50e
  8
Layer_0
  10
880.823
  20
179.07117
  0
VERTEX
  5
50f
  8
Layer_0
  10
882.823
  20
176.57117
  0
VERTEX
  5
510
  8
Layer_0
  10
907.85052
  20
176.57117
  0
VERTEX
  5
511
  8
Layer_0
  10
920.36426
  20
198.24561
  0
VERTEX
  5
512
  8
Layer_0
  10
919.63223
  20
200.97766
  0
VERTEX
  5
513
  8
Layer_0
  10
899.71362
  20
212.47766
  0
VERTEX
  5
514
  8
Layer_0
  10
901.55365
  20
215.66467
  0
VERTEX
  5
515
  8
Layer_0
  10
921.03922
  20
204.41467
  0
VERTEX
  5
516
  8
Layer_0
  10
924.20428
  20
204.89673
  0
VERTEX
  5
517
  8
Layer_0
  10
936.71802
  20
226.57117
  0
VERTEX
  5
518
  8
Layer_0
  10
924.20428
  20
248.24561
  0
VERTEX
  5
519
  8
Layer_0
  10
921.47223
  20
248.97766
  0
VERTEX
  5
51a
  8
Layer_0
  10
901.55365
  20
237.47766
  0
VERTEX
  5
51b
  8
Layer_0
  10
899.71362
  20
240.66467
  0
VERTEX
  5
51c
  8
Layer_0
  10
919.19922
  20
251.91467
  0
VERTEX
  5
51d
  8
Layer_0
  10
920.36426
  20
254.89673
  0
VERTEX
  5
51e
  8
Layer_0
  10
907.85052
  20
276.57117
  0
SEQEND
  0
ENDSEC
  0
EOF
